  0
SECTION
  2
HEADER
  9
$ACADVER
  1
AC1009
  9
$DWGCODEPAGE
  3
ansi_950
  9
$INSBASE
 10
0.0
 20
0.0
 30
0.0
  9
$EXTMIN
 10
818.9540907126211
 20
621.6363309417875
 30
0.0
  9
$EXTMAX
 10
9240.126213161175
 20
6561.33329134177
 30
0.0
  9
$LIMMIN
 10
0.0
 20
0.0
  9
$LIMMAX
 10
10000.0
 20
7070.0
  9
$ORTHOMODE
 70
     1
  9
$REGENMODE
 70
     1
  9
$FILLMODE
 70
     1
  9
$QTEXTMODE
 70
     0
  9
$MIRRTEXT
 70
     1
  9
$DRAGMODE
 70
     2
  9
$LTSCALE
 40
80.0
  9
$OSMODE
 70
   165
  9
$ATTMODE
 70
     1
  9
$TEXTSIZE
 40
25.0
  9
$TRACEWID
 40
1.0
  9
$TEXTSTYLE
  7
AEH
  9
$CLAYER
  8
0
  9
$CELTYPE
  6
BYLAYER
  9
$CECOLOR
 62
   256
  9
$DIMSCALE
 40
10.0
  9
$DIMASZ
 40
1.0
  9
$DIMEXO
 40
1.0
  9
$DIMDLI
 40
7.0
  9
$DIMRND
 40
0.0
  9
$DIMDLE
 40
0.0
  9
$DIMEXE
 40
1.0
  9
$DIMTP
 40
0.0
  9
$DIMTM
 40
0.0
  9
$DIMTXT
 40
2.5
  9
$DIMCEN
 40
0.1
  9
$DIMTSZ
 40
0.0
  9
$DIMTOL
 70
     0
  9
$DIMLIM
 70
     0
  9
$DIMTIH
 70
     0
  9
$DIMTOH
 70
     0
  9
$DIMSE1
 70
     0
  9
$DIMSE2
 70
     0
  9
$DIMTAD
 70
     1
  9
$DIMZIN
 70
     8
  9
$DIMBLK
  1
DOT_
  9
$DIMASO
 70
     1
  9
$DIMSHO
 70
     1
  9
$DIMPOST
  1

  9
$DIMAPOST
  1

  9
$DIMALT
 70
     0
  9
$DIMALTD
 70
     2
  9
$DIMALTF
 40
25.4
  9
$DIMLFAC
 40
1.0
  9
$DIMTOFL
 70
     1
  9
$DIMTVP
 40
0.0
  9
$DIMTIX
 70
     0
  9
$DIMSOXD
 70
     0
  9
$DIMSAH
 70
     0
  9
$DIMBLK1
  1

  9
$DIMBLK2
  1

  9
$DIMSTYLE
  2
STANDARD
  9
$DIMCLRD
 70
     0
  9
$DIMCLRE
 70
     0
  9
$DIMCLRT
 70
     0
  9
$DIMTFAC
 40
1.0
  9
$DIMGAP
 40
0.5
  9
$LUNITS
 70
     2
  9
$LUPREC
 70
     4
  9
$SKETCHINC
 40
1.0
  9
$FILLETRAD
 40
10.0
  9
$AUNITS
 70
     0
  9
$AUPREC
 70
     2
  9
$MENU
  1
.
  9
$ELEVATION
 40
0.0
  9
$PELEVATION
 40
0.0
  9
$THICKNESS
 40
0.0
  9
$LIMCHECK
 70
     0
  9
$CHAMFERA
 40
10.0
  9
$CHAMFERB
 40
10.0
  9
$SKPOLY
 70
     0
  9
$TDCREATE
 40
2454673.652273924
  9
$TDUPDATE
 40
2457202.752296864
  9
$TDINDWG
 40
0.4511552199
  9
$TDUSRTIMER
 40
2457202.418540347
  9
$USRTIMER
 70
     1
  9
$ANGBASE
 50
0.0
  9
$ANGDIR
 70
     0
  9
$PDMODE
 70
     0
  9
$PDSIZE
 40
0.0
  9
$PLINEWID
 40
0.0
  9
$COORDS
 70
     2
  9
$SPLFRAME
 70
     0
  9
$SPLINETYPE
 70
     6
  9
$SPLINESEGS
 70
     8
  9
$ATTDIA
 70
     0
  9
$ATTREQ
 70
     1
  9
$HANDLING
 70
     1
  9
$HANDSEED
  5
C8B
  9
$SURFTAB1
 70
     6
  9
$SURFTAB2
 70
     6
  9
$SURFTYPE
 70
     6
  9
$SURFU
 70
     6
  9
$SURFV
 70
     6
  9
$UCSNAME
  2

  9
$UCSORG
 10
0.0
 20
0.0
 30
0.0
  9
$UCSXDIR
 10
1.0
 20
0.0
 30
0.0
  9
$UCSYDIR
 10
0.0
 20
1.0
 30
0.0
  9
$PUCSNAME
  2

  9
$PUCSORG
 10
0.0
 20
0.0
 30
0.0
  9
$PUCSXDIR
 10
1.0
 20
0.0
 30
0.0
  9
$PUCSYDIR
 10
0.0
 20
1.0
 30
0.0
  9
$USERI1
 70
     0
  9
$USERI2
 70
     0
  9
$USERI3
 70
     0
  9
$USERI4
 70
     0
  9
$USERI5
 70
     0
  9
$USERR1
 40
0.0
  9
$USERR2
 40
0.0
  9
$USERR3
 40
0.0
  9
$USERR4
 40
0.0
  9
$USERR5
 40
0.0
  9
$WORLDVIEW
 70
     1
  9
$SHADEDGE
 70
     3
  9
$SHADEDIF
 70
    70
  9
$TILEMODE
 70
     1
  9
$MAXACTVP
 70
    64
  9
$PLIMCHECK
 70
     0
  9
$PEXTMIN
 10
1.000000000000000E+20
 20
1.000000000000000E+20
 30
1.000000000000000E+20
  9
$PEXTMAX
 10
-1.000000000000000E+20
 20
-1.000000000000000E+20
 30
-1.000000000000000E+20
  9
$PLIMMIN
 10
0.0
 20
0.0
  9
$PLIMMAX
 10
0.0
 20
0.0
  9
$UNITMODE
 70
     0
  9
$VISRETAIN
 70
     1
  9
$PLINEGEN
 70
     0
  9
$PSLTSCALE
 70
     0
  0
ENDSEC
  0
SECTION
  2
TABLES
  0
TABLE
  2
VPORT
 70
     1
  0
VPORT
  2
*ACTIVE
 70
     0
 10
0.0
 20
0.0
 11
1.0
 21
1.0
 12
5029.540151936898
 22
3591.484811141779
 13
0.0
 23
0.0
 14
100.0
 24
100.0
 15
100.0
 25
100.0
 16
0.0
 26
0.0
 36
1.0
 17
0.0
 27
0.0
 37
0.0
 40
6058.490899607982
 41
2.084745762711865
 42
50.0
 43
0.0
 44
0.0
 50
0.0
 51
0.0
 71
    16
 72
   100
 73
     1
 74
     3
 75
     0
 76
     0
 77
     0
 78
     0
  0
ENDTAB
  0
TABLE
  2
LTYPE
 70
    61
  0
LTYPE
  2
CONTINUOUS
 70
     0
  3
Solid line
 72
    65
 73
     0
 40
0.0
  0
LTYPE
  2
BORDER
 70
     0
  3
 Border __ __ . __ __ . __ __ . __ __ . __ __ .
 72
    65
 73
     6
 40
1.75
 49
0.5
 49
-0.25
 49
0.5
 49
-0.25
 49
0.0
 49
-0.25
  0
LTYPE
  2
BORDER2
 70
     0
  3
Border (.5x) __.__.__.__.__.__.__.__.__.__.__.
 72
    65
 73
     6
 40
0.875
 49
0.25
 49
-0.125
 49
0.25
 49
-0.125
 49
0.0
 49
-0.125
  0
LTYPE
  2
BORDERX2
 70
     0
  3
Border (2x) ____  ____  .  ____  ____  .  ___
 72
    65
 73
     6
 40
3.5
 49
1.0
 49
-0.5
 49
1.0
 49
-0.5
 49
0.0
 49
-0.5
  0
LTYPE
  2
CENTER
 70
     0
  3
 Center ____ _ ____ _ ____ _ ____ _ ____ _ ____
 72
    65
 73
     4
 40
2.0
 49
1.25
 49
-0.25
 49
0.25
 49
-0.25
  0
LTYPE
  2
CENTER2
 70
     0
  3
Center (.5x) ___ _ ___ _ ___ _ ___ _ ___ _ ___
 72
    65
 73
     4
 40
1.125
 49
0.75
 49
-0.125
 49
0.125
 49
-0.125
  0
LTYPE
  2
CENTERX2
 70
     0
  3
Center (2x) ________  __  ________  __  _____
 72
    65
 73
     4
 40
4.0
 49
2.5
 49
-0.5
 49
0.5
 49
-0.5
  0
LTYPE
  2
DASHDOT
 70
     0
  3
 DashDot __ . __ . __ . __ . __ . __ . __ . __ 
 72
    65
 73
     4
 40
1.0
 49
0.5
 49
-0.25
 49
0.0
 49
-0.25
  0
LTYPE
  2
DASHDOT2
 70
     0
  3
Dash dot (.5x) _._._._._._._._._._._._._._._.
 72
    65
 73
     4
 40
0.5
 49
0.25
 49
-0.125
 49
0.0
 49
-0.125
  0
LTYPE
  2
DASHDOTX2
 70
     0
  3
Dash dot (2x) ____  .  ____  .  ____  .  ___
 72
    65
 73
     4
 40
2.0
 49
1.0
 49
-0.5
 49
0.0
 49
-0.5
  0
LTYPE
  2
DASHED
 70
     0
  3
 Dashed __ __ __ __ __ __ __ __ __ __ __ __ __ 
 72
    65
 73
     2
 40
0.375
 49
0.25
 49
-0.125
  0
LTYPE
  2
DASHED2
 70
     0
  3
Dashed (.5x) _ _ _ _ _ _ _ _ _ _ _ _ _ _ _ _ _
 72
    65
 73
     2
 40
0.375
 49
0.25
 49
-0.125
  0
LTYPE
  2
DASHEDX2
 70
     0
  3
Dashed (2x) ____  ____  ____  ____  ____  ___
 72
    65
 73
     2
 40
1.5
 49
1.0
 49
-0.5
  0
LTYPE
  2
DIVIDE
 70
     0
  3
 DashDotDot __  .  . __  .  . __  .  . __  .  .
 72
    65
 73
     6
 40
1.25
 49
0.5
 49
-0.25
 49
0.0
 49
-0.25
 49
0.0
 49
-0.25
  0
LTYPE
  2
DIVIDE2
 70
     0
  3
Divide (.5x) __..__..__..__..__..__..__..__.._
 72
    65
 73
     6
 40
0.625
 49
0.25
 49
-0.125
 49
0.0
 49
-0.125
 49
0.0
 49
-0.125
  0
LTYPE
  2
DIVIDEX2
 70
     0
  3
Divide (2x) ________  .  .  ________  .  .  _
 72
    65
 73
     6
 40
2.5
 49
1.0
 49
-0.5
 49
0.0
 49
-0.5
 49
0.0
 49
-0.5
  0
LTYPE
  2
DOT
 70
     0
  3
Dot . . . . . . . . . . . . . . . . . . . . . .
 72
    65
 73
     2
 40
0.25
 49
0.0
 49
-0.25
  0
LTYPE
  2
DOT2
 70
     0
  3
Dot (.5x) .....................................
 72
    65
 73
     2
 40
0.125
 49
0.0
 49
-0.125
  0
LTYPE
  2
DOTX2
 70
     0
  3
Dot (2x) .  .  .  .  .  .  .  .  .  .  .  .  . 
 72
    65
 73
     2
 40
0.5
 49
0.0
 49
-0.5
  0
LTYPE
  2
HIDDEN
 70
     0
  3
 Hidden _ _ _ _ _ _ _ _ _ _ _ _ _ _ _ _ _ _ _ _
 72
    65
 73
     2
 40
0.375
 49
0.25
 49
-0.125
  0
LTYPE
  2
HIDDEN2
 70
     0
  3
Hidden (.5x) _ _ _ _ _ _ _ _ _ _ _ _ _ _ _ _ _
 72
    65
 73
     2
 40
0.1875
 49
0.125
 49
-0.0625
  0
LTYPE
  2
HIDDENX2
 70
     0
  3
Hidden (2x) ____ ____ ____ ____ ____ ____ ____
 72
    65
 73
     2
 40
0.75
 49
0.5
 49
-0.25
  0
LTYPE
  2
PHANTOM
 70
     0
  3
Phantom ______  __  __  ______  __  __  ______ 
 72
    65
 73
     6
 40
2.5
 49
1.25
 49
-0.25
 49
0.25
 49
-0.25
 49
0.25
 49
-0.25
  0
LTYPE
  2
PHANTOM2
 70
     0
  3
Phantom (.5x) ___ _ _ ___ _ _ ___ _ _ ___ _ _
 72
    65
 73
     6
 40
1.25
 49
0.625
 49
-0.125
 49
0.125
 49
-0.125
 49
0.125
 49
-0.125
  0
LTYPE
  2
PHANTOMX2
 70
     0
  3
Phantom (2x) ____________    ____    ____   _
 72
    65
 73
     6
 40
5.0
 49
2.5
 49
-0.5
 49
0.5
 49
-0.5
 49
0.5
 49
-0.5
  0
LTYPE
  2
ACAD_ISO02W100
 70
     0
  3
ISO dash __ __ __ __ __ __ __ __ __ __ __ __ __
 72
    65
 73
     2
 40
15.0
 49
12.0
 49
-3.0
  0
LTYPE
  2
ACAD_ISO03W100
 70
     0
  3
ISO dash space __    __    __    __    __    __
 72
    65
 73
     2
 40
30.0
 49
12.0
 49
-18.0
  0
LTYPE
  2
ACAD_ISO04W100
 70
     0
  3
ISO long-dash dot ____ . ____ . ____ . ____ . _
 72
    65
 73
     4
 40
30.0
 49
24.0
 49
-3.0
 49
0.0
 49
-3.0
  0
LTYPE
  2
ACAD_ISO05W100
 70
     0
  3
ISO long-dash double-dot ____ .. ____ .. ____ .
 72
    65
 73
     6
 40
33.0
 49
24.0
 49
-3.0
 49
0.0
 49
-3.0
 49
0.0
 49
-3.0
  0
LTYPE
  2
ACAD_ISO06W100
 70
     0
  3
ISO long-dash triple-dot ____ ... ____ ... ____
 72
    65
 73
     8
 40
36.0
 49
24.0
 49
-3.0
 49
0.0
 49
-3.0
 49
0.0
 49
-3.0
 49
0.0
 49
-3.0
  0
LTYPE
  2
ACAD_ISO07W100
 70
     0
  3
ISO dot . . . . . . . . . . . . . . . . . . . .
 72
    65
 73
     2
 40
3.0
 49
0.0
 49
-3.0
  0
LTYPE
  2
ACAD_ISO08W100
 70
     0
  3
ISO long-dash short-dash ____ __ ____ __ ____ _
 72
    65
 73
     4
 40
36.0
 49
24.0
 49
-3.0
 49
6.0
 49
-3.0
  0
LTYPE
  2
ACAD_ISO09W100
 70
     0
  3
ISO long-dash double-short-dash ____ __ __ ____
 72
    65
 73
     6
 40
45.0
 49
24.0
 49
-3.0
 49
6.0
 49
-3.0
 49
6.0
 49
-3.0
  0
LTYPE
  2
ACAD_ISO10W100
 70
     0
  3
ISO dash dot __ . __ . __ . __ . __ . __ . __ .
 72
    65
 73
     4
 40
18.0
 49
12.0
 49
-3.0
 49
0.0
 49
-3.0
  0
LTYPE
  2
ACAD_ISO11W100
 70
     0
  3
ISO double-dash dot __ __ . __ __ . __ __ . __ 
 72
    65
 73
     6
 40
33.0
 49
12.0
 49
-3.0
 49
12.0
 49
-3.0
 49
0.0
 49
-3.0
  0
LTYPE
  2
ACAD_ISO12W100
 70
     0
  3
ISO dash double-dot __ . . __ . . __ . . __ . .
 72
    65
 73
     6
 40
21.0
 49
12.0
 49
-3.0
 49
0.0
 49
-3.0
 49
0.0
 49
-3.0
  0
LTYPE
  2
ACAD_ISO13W100
 70
     0
  3
ISO double-dash double-dot __ __ . . __ __ . . 
 72
    65
 73
     8
 40
36.0
 49
12.0
 49
-3.0
 49
12.0
 49
-3.0
 49
0.0
 49
-3.0
 49
0.0
 49
-3.0
  0
LTYPE
  2
ACAD_ISO14W100
 70
     0
  3
ISO dash triple-dot __ . . . __ . . . __ . . . 
 72
    65
 73
     8
 40
24.0
 49
12.0
 49
-3.0
 49
0.0
 49
-3.0
 49
0.0
 49
-3.0
 49
0.0
 49
-3.0
  0
LTYPE
  2
ACAD_ISO15W100
 70
     0
  3
ISO double-dash triple-dot __ __ . . . __ __ . 
 72
    65
 73
    10
 40
39.0
 49
12.0
 49
-3.0
 49
12.0
 49
-3.0
 49
0.0
 49
-3.0
 49
0.0
 49
-3.0
 49
0.0
 49
-3.0
  0
LTYPE
  2
FENCELINE1
 70
     0
  3
Fence circle ----0-----0----0-----0----0-----0-
 72
    65
 73
     4
 40
0.5499999999999999
 49
0.25
 49
-0.1
 49
-0.1
 49
0.1
  0
LTYPE
  2
FENCELINE2
 70
     0
  3
Fence square ----[]-----[]----[]-----[]----[]--
 72
    65
 73
     4
 40
0.5499999999999999
 49
0.25
 49
-0.1
 49
-0.1
 49
0.1
  0
LTYPE
  2
TRACKS
 70
     0
  3
Tracks -|-|-|-|-|-|-|-|-|-|-|-|-|-|-|-|-|-|-|-|
 72
    65
 73
     2
 40
0.3
 49
0.15
 49
0.15
  0
LTYPE
  2
BATTING
 70
     0
  3
Batting SSSSSSSSSSSSSSSSSSSSSSSSSSSSSSSSSSSSSSS
 72
    65
 73
     4
 40
0.4001
 49
0.0001
 49
-0.1
 49
-0.2
 49
-0.1
  0
LTYPE
  2
HOT_WATER_SUPPLY
 70
     0
  3
Hot water supply ---- HW ---- HW ---- HW ----
 72
    65
 73
     3
 40
0.9
 49
0.5
 49
-0.2
 49
-0.2
  0
LTYPE
  2
GAS_LINE
 70
     0
  3
Gas line ----GAS----GAS----GAS----GAS----GAS---
 72
    65
 73
     3
 40
0.95
 49
0.5
 49
-0.2
 49
-0.25
  0
LTYPE
  2
ZIGZAG
 70
     0
  3
Zig zag /\/\/\/\/\/\/\/\/\/\/\/\/\/\/\/\/\/\/\/
 72
    65
 73
     4
 40
0.8001
 49
0.0001
 49
-0.2
 49
-0.4
 49
-0.2
  0
LTYPE
  2
DOTTED
 70
     0
  3
 Dotted . . . . . . . . . . . . . . . . . . . .
 72
    65
 73
     2
 40
0.25
 49
0.0
 49
-0.25
  0
LTYPE
  2
DASH2
 70
     0
  3
 DashLong ____   ____   ____   ____   ____   __
 72
    65
 73
     2
 40
0.75
 49
0.5
 49
-0.25
  0
LTYPE
  2
DASH2DOT
 70
     0
  3
 DashDotDot ____ . . ____ . . ____ . . ____ . .
 72
    65
 73
     6
 40
1.25
 49
0.5
 49
-0.25
 49
0.0
 49
-0.25
 49
0.0
 49
-0.25
  0
LTYPE
  2
FENCELINE
 70
     0
  3
 Fenceline ----0-----0----0-----0----0-----0--
 72
    65
 73
     4
 40
1.375
 49
0.625
 49
-0.25
 49
-0.25
 49
0.25
  0
LTYPE
  2
FENCELINE21
 70
     0
  3
Fence square 45 ----[]-----[]----[]-----[]----[
 72
    65
 73
     4
 40
0.5413380000000001
 49
0.205294
 49
-0.139194
 49
-0.139194
 49
0.057656
  0
LTYPE
  2
TRACK
 70
     0
  3
Tracks -|-|-|-|-|-|-|-|-|-|-|-|-|-|-|-|-|-|-|-|
 72
    65
 73
     2
 40
0.3
 49
0.15
 49
0.15
  0
LTYPE
  2
HOT_WATER
 70
     0
  3
Hot water line ---- HW ---- HW ---- HW ----
 72
    65
 73
     3
 40
0.8999999999999999
 49
0.5
 49
-0.2
 49
-0.2
  0
LTYPE
  2
DIAMONDSMALL
 70
     0
  3
DiamondSmall ######################
 72
    65
 73
     2
 40
0.052493
 49
0.0
 49
-0.052493
  0
LTYPE
  2
DIAMOND
 70
     0
  3
Diamond ######################
 72
    65
 73
     2
 40
0.15748
 49
0.0
 49
-0.15748
  0
LTYPE
  2
STAR4
 70
     0
  3
Star4
 72
    65
 73
     2
 40
0.35433
 49
0.0
 49
-0.35433
  0
LTYPE
  2
STAR4ROT45
 70
     0
  3
Star4R45
 72
    65
 73
     2
 40
0.35433
 49
0.0
 49
-0.35433
  0
LTYPE
  2
XLINE
 70
     0
  3
XLine X-X-X-X-X-X-X-X-X-X-X-X-X-X-X-X-X-X-X
 72
    65
 73
     2
 40
0.23622
 49
0.15748
 49
-0.07874
  0
LTYPE
  2
TRILINE
 70
     0
  3
TriLine =3=3=3=3=3=3=3=3=3=
 72
    65
 73
     2
 40
0.19685
 49
0.0
 49
-0.19685
  0
LTYPE
  2
FIVELINE
 70
     0
  3
FIVELINE =5=5=5=5=5=5=5=5=5=
 72
    65
 73
     2
 40
0.19685
 49
0.0
 49
-0.19685
  0
LTYPE
  2
SINUS
 70
     0
  3
SINUS ~~~~~~~~~~~~~~~~~~~~~~
 72
    65
 73
     3
 40
0.31496
 49
0.0
 49
-0.15748
 49
-0.15748
  0
ENDTAB
  0
TABLE
  2
LAYER
 70
    63
  0
LAYER
  2
0
 70
     0
 62
     7
  6
CONTINUOUS
  0
LAYER
  2
C1
 70
     0
 62
     1
  6
CONTINUOUS
  0
LAYER
  2
C2
 70
     0
 62
     2
  6
CONTINUOUS
  0
LAYER
  2
C3
 70
     0
 62
     3
  6
CONTINUOUS
  0
LAYER
  2
C4
 70
     0
 62
     4
  6
CONTINUOUS
  0
LAYER
  2
C5
 70
     0
 62
     5
  6
CONTINUOUS
  0
LAYER
  2
C6
 70
     0
 62
     6
  6
CONTINUOUS
  0
LAYER
  2
C7
 70
     0
 62
     7
  6
CONTINUOUS
  0
LAYER
  2
BASELINE
 70
     0
 62
    33
  6
CONTINUOUS
  0
LAYER
  2
DIM
 70
     0
 62
     4
  6
CONTINUOUS
  0
LAYER
  2
TEXT
 70
     0
 62
     3
  6
CONTINUOUS
  0
LAYER
  2
PAPER
 70
     0
 62
     7
  6
CONTINUOUS
  0
LAYER
  2
COLUMN
 70
     0
 62
     1
  6
CONTINUOUS
  0
LAYER
  2
WALL
 70
     0
 62
     2
  6
CONTINUOUS
  0
LAYER
  2
WALL2
 70
     0
 62
     7
  6
CONTINUOUS
  0
LAYER
  2
WINDOW
 70
     0
 62
     5
  6
CONTINUOUS
  0
LAYER
  2
WINDOW1
 70
     0
 62
     7
  6
CONTINUOUS
  0
LAYER
  2
WINDOWP
 70
     0
 62
     4
  6
CONTINUOUS
  0
LAYER
  2
DOOR
 70
     0
 62
     5
  6
CONTINUOUS
  0
LAYER
  2
DE-DOOR
 70
     0
 62
     4
  6
CONTINUOUS
  0
LAYER
  2
TOILET
 70
     0
 62
     5
  6
CONTINUOUS
  0
LAYER
  2
DTOILET
 70
     0
 62
     4
  6
CONTINUOUS
  0
LAYER
  2
PAINT
 70
     0
 62
     3
  6
CONTINUOUS
  0
LAYER
  2
SECPAINT
 70
     0
 62
     3
  6
CONTINUOUS
  0
LAYER
  2
SECWD
 70
     0
 62
     5
  6
CONTINUOUS
  0
LAYER
  2
TREES
 70
     0
 62
     3
  6
CONTINUOUS
  0
LAYER
  2
CAR
 70
     0
 62
     3
  6
CONTINUOUS
  0
LAYER
  2
PEOPLE
 70
     0
 62
     5
  6
CONTINUOUS
  0
LAYER
  2
RAILING
 70
     0
 62
     4
  6
CONTINUOUS
  0
LAYER
  2
FURNITURE
 70
     0
 62
     6
  6
CONTINUOUS
  0
LAYER
  2
CHINA
 70
     0
 62
     3
  6
CONTINUOUS
  0
LAYER
  2
CHINA1
 70
     0
 62
     1
  6
CONTINUOUS
  0
LAYER
  2
SECBEAM
 70
     0
 62
     1
  6
CONTINUOUS
  0
LAYER
  2
AREA
 70
     0
 62
     3
  6
CONTINUOUS
  0
LAYER
  2
法定騎樓
 70
     0
 62
    41
  6
CONTINUOUS
  0
LAYER
  2
騎樓地
 70
     0
 62
    41
  6
CONTINUOUS
  0
LAYER
  2
建築物
 70
     0
 62
    10
  6
CONTINUOUS
  0
LAYER
  2
停車空間
 70
     0
 62
    51
  6
CONTINUOUS
  0
LAYER
  2
退縮地
 70
     0
 62
    50
  6
CONTINUOUS
  0
LAYER
  2
保留地
 70
     0
 62
    20
  6
CONTINUOUS
  0
LAYER
  2
私設道路
 70
     4
 62
    16
  6
CONTINUOUS
  0
LAYER
  2
防火間隔
 70
     4
 62
     3
  6
CONTINUOUS
  0
LAYER
  2
文字備註
 70
     0
 62
   255
  6
CONTINUOUS
  0
LAYER
  2
其他
 70
     0
 62
     6
  6
CONTINUOUS
  0
LAYER
  2
地籍
 70
     0
 62
     5
  6
CONTINUOUS
  0
LAYER
  2
退縮地_法空
 70
     0
 62
    30
  6
CONTINUOUS
  0
LAYER
  2
私設道路_法空
 70
     4
 62
    16
  6
CONTINUOUS
  0
LAYER
  2
PARTEEN
 70
     0
 62
     7
  6
CONTINUOUS
  0
LAYER
  2
綠帶
 70
     0
 62
    84
  6
CONTINUOUS
  0
LAYER
  2
建築線
 70
     0
 62
     1
  6
CONTINUOUS
  0
LAYER
  2
現有道路
 70
     0
 62
    27
  6
CONTINUOUS
  0
LAYER
  2
計畫道路
 70
     0
 62
    27
  6
CONTINUOUS
  0
LAYER
  2
法定空地
 70
     0
 62
   108
  6
CONTINUOUS
  0
LAYER
  2
人行道
 70
     0
 62
    11
  6
CONTINUOUS
  0
LAYER
  2
防空地下室
 70
     0
 62
   170
  6
CONTINUOUS
  0
LAYER
  2
整界地
 70
     0
 62
    35
  6
CONTINUOUS
  0
LAYER
  2
基地範圍
 70
     0
 62
    98
  6
CONTINUOUS
  0
LAYER
  2
PIPELINE
 70
     0
 62
   216
  6
CONTINUOUS
  0
LAYER
  2
PIPEFITTING
 70
     0
 62
   216
  6
CONTINUOUS
  0
LAYER
  2
PIPELINE1
 70
     0
 62
   216
  6
CONTINUOUS
  0
LAYER
  2
2ND-
 70
     0
 62
   212
  6
CONTINUOUS
  0
LAYER
  2
PP
 70
     0
 62
     1
  6
CONTINUOUS
  0
LAYER
  2
REV
 70
     0
 62
    30
  6
CONTINUOUS
  0
ENDTAB
  0
TABLE
  2
STYLE
 70
     7
  0
STYLE
  2
STANDARD
 70
     0
 40
0.0
 41
1.0
 50
0.0
 71
     0
 42
2.5
  3
txt
  4

  0
STYLE
  2

 70
     1
 40
0.0
 41
1.0
 50
0.0
 71
     0
 42
2.5
  3
ltypeshp.shx
  4

  0
STYLE
  2
SIMPLEX
 70
     0
 40
0.0
 41
1.0
 50
0.0
 71
     0
 42
2.5
  3
Tc-simp.shx
  4

  0
STYLE
  2
COMPLEX
 70
     0
 40
0.0
 41
1.0
 50
0.0
 71
     0
 42
2.5
  3
Tc-comp.shx
  4

  0
STYLE
  2
ITALIC
 70
     0
 40
0.0
 41
1.0
 50
0.0
 71
     0
 42
2.5
  3
Tc-ital.shx
  4

  0
STYLE
  2
AEH
 70
     0
 40
0.0
 41
1.0
 50
0.0
 71
     0
 42
25.0
  3
Tc-simp.shx
  4
ae.shx
  0
STYLE
  2
AEV
 70
     4
 40
0.0
 41
1.0
 50
0.0
 71
     0
 42
2.5
  3
Tc-simp.shx
  4
ae.shx
  0
STYLE
  2
RUBONFS
 70
     0
 40
0.0
 41
1.0
 50
0.0
 71
     0
 42
25.0
  3
QTXT
  4
AE.SHX
  0
ENDTAB
  0
TABLE
  2
VIEW
 70
     0
  0
ENDTAB
  0
TABLE
  2
UCS
 70
     0
  0
ENDTAB
  0
TABLE
  2
APPID
 70
     7
  0
APPID
  2
ACAD
 70
     0
  0
APPID
  2
ACAD_PSEXT
 70
     0
  0
APPID
  2
ACAECLAYERSTANDARD
 70
     0
  0
APPID
  2
QCAD_PAPER
 70
     0
  0
APPID
  2
AECBASE
 70
     0
  0
APPID
  2
AEC_2DSECTION_XDATA
 70
     0
  0
APPID
  2
AEC_MASSGROUP_XDADA
 70
     0
  0
ENDTAB
  0
TABLE
  2
DIMSTYLE
 70
    12
  0
DIMSTYLE
  2
ISO-25
 70
     0
  3

  4

  5

  6

  7

 40
10.0
 41
2.5
 42
0.625
 43
3.75
 44
1.25
 45
0.0
 46
0.0
 47
0.0
 48
0.0
140
2.5
141
2.5
142
0.0
143
0.03937007874016
144
1.0
145
0.0
146
1.0
147
0.625
 71
     0
 72
     0
 73
     0
 74
     0
 75
     0
 76
     0
 77
     1
 78
     8
170
     0
171
     3
172
     1
173
     0
174
     0
175
     0
176
     0
177
     0
178
     0
  0
DIMSTYLE
  2
STANDARD
 70
     0
  3

  4

  5
DOT_
  6

  7

 40
10.0
 41
1.0
 42
1.0
 43
7.0
 44
1.0
 45
0.0
 46
0.0
 47
0.0
 48
0.0
140
2.5
141
0.1
142
0.0
143
25.4
144
1.0
145
0.0
146
1.0
147
0.5
 71
     0
 72
     0
 73
     0
 74
     0
 75
     0
 76
     0
 77
     1
 78
     8
170
     0
171
     2
172
     1
173
     0
174
     0
175
     0
176
     0
177
     0
178
     0
  0
DIMSTYLE
  2
_S100_CEN
 70
     0
  3

  4

  5
DOT_1
  6

  7

 40
10.0
 41
1.0
 42
1.0
 43
7.0
 44
1.0
 45
0.0
 46
0.0
 47
0.0
 48
0.0
140
2.5
141
0.1
142
0.0
143
25.4
144
1.0
145
0.0
146
1.0
147
0.09
 71
     0
 72
     0
 73
     0
 74
     0
 75
     0
 76
     0
 77
     1
 78
     8
170
     0
171
     2
172
     1
173
     0
174
     0
175
     0
176
     0
177
     0
178
     3
  0
DIMSTYLE
  2
_S100_CEN_DOT
 70
     0
  3

  4

  5

  6
DOT_1
  7
DOT_
 40
10.0
 41
1.0
 42
1.0
 43
7.0
 44
1.0
 45
0.0
 46
0.0
 47
0.0
 48
0.0
140
2.5
141
0.1
142
0.0
143
25.4
144
1.0
145
0.0
146
1.0
147
0.5
 71
     0
 72
     0
 73
     0
 74
     0
 75
     0
 76
     0
 77
     1
 78
     8
170
     0
171
     2
172
     1
173
     1
174
     0
175
     0
176
     0
177
     0
178
     3
  0
DIMSTYLE
  2
_S100_CEN_RL
 70
     0
  3

  4

  5

  6
DOT_1
  7
RL_
 40
10.0
 41
1.0
 42
1.0
 43
7.0
 44
1.0
 45
0.0
 46
0.0
 47
0.0
 48
0.0
140
2.5
141
0.1
142
0.0
143
25.4
144
1.0
145
0.0
146
1.0
147
0.5
 71
     0
 72
     0
 73
     0
 74
     0
 75
     0
 76
     0
 77
     1
 78
     8
170
     0
171
     2
172
     1
173
     1
174
     0
175
     0
176
     0
177
     0
178
     3
  0
DIMSTYLE
  2
_S100_DOT
 70
     0
  3

  4

  5
DOT_
  6

  7

 40
10.0
 41
1.0
 42
1.0
 43
7.0
 44
1.0
 45
0.0
 46
0.0
 47
0.0
 48
0.0
140
2.5
141
0.1
142
0.0
143
25.4
144
1.0
145
0.0
146
1.0
147
0.5
 71
     0
 72
     0
 73
     0
 74
     0
 75
     0
 76
     0
 77
     1
 78
     8
170
     0
171
     2
172
     1
173
     0
174
     0
175
     0
176
     0
177
     0
178
     3
  0
DIMSTYLE
  2
_S100_DOT_CEN
 70
     0
  3

  4

  5

  6
DOT_
  7
DOT_1
 40
10.0
 41
1.0
 42
1.0
 43
7.0
 44
1.0
 45
0.0
 46
0.0
 47
0.0
 48
0.0
140
2.5
141
0.1
142
0.0
143
25.4
144
1.0
145
0.0
146
1.0
147
0.5
 71
     0
 72
     0
 73
     0
 74
     0
 75
     0
 76
     0
 77
     1
 78
     8
170
     0
171
     2
172
     1
173
     1
174
     0
175
     0
176
     0
177
     0
178
     3
  0
DIMSTYLE
  2
_S100_DOT_RL
 70
     0
  3

  4

  5

  6
DOT_
  7
RL_
 40
10.0
 41
1.0
 42
1.0
 43
7.0
 44
1.0
 45
0.0
 46
0.0
 47
0.0
 48
0.0
140
2.5
141
0.1
142
0.0
143
25.4
144
1.0
145
0.0
146
1.0
147
0.5
 71
     0
 72
     0
 73
     0
 74
     0
 75
     0
 76
     0
 77
     1
 78
     8
170
     0
171
     2
172
     1
173
     1
174
     0
175
     0
176
     0
177
     0
178
     3
  0
DIMSTYLE
  2
_S100_NL
 70
     0
  3

  4

  5
NL_
  6

  7

 40
10.0
 41
1.0
 42
1.0
 43
7.0
 44
1.0
 45
0.0
 46
0.0
 47
0.0
 48
0.0
140
2.5
141
0.1
142
0.0
143
25.4
144
1.0
145
0.0
146
1.0
147
0.5
 71
     0
 72
     0
 73
     0
 74
     0
 75
     0
 76
     0
 77
     1
 78
     8
170
     0
171
     2
172
     1
173
     0
174
     0
175
     0
176
     0
177
     0
178
     3
  0
DIMSTYLE
  2
_S100_RL
 70
     0
  3

  4

  5
RL_
  6

  7

 40
10.0
 41
1.0
 42
1.0
 43
7.0
 44
1.0
 45
0.0
 46
0.0
 47
0.0
 48
0.0
140
2.5
141
0.1
142
0.0
143
25.4
144
1.0
145
0.0
146
1.0
147
0.5
 71
     0
 72
     0
 73
     0
 74
     0
 75
     0
 76
     0
 77
     1
 78
     8
170
     0
171
     2
172
     1
173
     0
174
     0
175
     0
176
     0
177
     0
178
     3
  0
DIMSTYLE
  2
_S100_RL_CEN
 70
     0
  3

  4

  5

  6
RL_
  7
DOT_1
 40
10.0
 41
1.0
 42
1.0
 43
7.0
 44
1.0
 45
0.0
 46
0.0
 47
0.0
 48
0.0
140
2.5
141
0.1
142
0.0
143
25.4
144
1.0
145
0.0
146
1.0
147
0.5
 71
     0
 72
     0
 73
     0
 74
     0
 75
     0
 76
     0
 77
     1
 78
     8
170
     0
171
     2
172
     1
173
     1
174
     0
175
     0
176
     0
177
     0
178
     3
  0
DIMSTYLE
  2
_S100_RL_DOT
 70
     0
  3

  4

  5

  6
RL_
  7
DOT_
 40
10.0
 41
1.0
 42
1.0
 43
7.0
 44
1.0
 45
0.0
 46
0.0
 47
0.0
 48
0.0
140
2.5
141
0.1
142
0.0
143
25.4
144
1.0
145
0.0
146
1.0
147
0.5
 71
     0
 72
     0
 73
     0
 74
     0
 75
     0
 76
     0
 77
     1
 78
     8
170
     0
171
     2
172
     1
173
     1
174
     0
175
     0
176
     0
177
     0
178
     3
  0
ENDTAB
  0
ENDSEC
  0
SECTION
  2
BLOCKS
  0
BLOCK
  8
0
  2
$MODEL_SPACE
 70
     0
 10
0.0
 20
0.0
 30
0.0
  3
$MODEL_SPACE
  1

  0
ENDBLK
  5
21
  8
0
  0
BLOCK
 67
     1
  8
0
  2
$PAPER_SPACE
 70
     0
 10
0.0
 20
0.0
 30
0.0
  3
$PAPER_SPACE
  1

  0
ENDBLK
  5
1D
 67
     1
  8
0
  0
BLOCK
  8
0
  2
_QCAD_PAPER
 70
     0
 10
0.0
 20
0.0
 30
0.0
  3
_QCAD_PAPER
  1

  0
POLYLINE
  5
2D8
  8
0
 66
     1
 10
0.0
 20
0.0
 30
0.0
 70
     1
  0
VERTEX
  5
C68
  8
0
 10
0.0
 20
0.0
 30
0.0
  0
VERTEX
  5
C69
  8
0
 10
1.0
 20
0.0
 30
0.0
  0
VERTEX
  5
C6A
  8
0
 10
1.0
 20
1.0
 30
0.0
  0
VERTEX
  5
C6B
  8
0
 10
0.0
 20
1.0
 30
0.0
  0
SEQEND
  5
C84
  8
0
  0
ENDBLK
  5
2E4
  8
0
  0
BLOCK
  8
0
  2
DOT_
 70
     0
 10
0.0
 20
0.0
 30
0.0
  3
DOT_
  1

  0
LINE
  5
151
  8
0
  6
CONTINUOUS
 62
     0
 10
-2.0
 20
0.0
 30
0.0
 11
2.0
 21
0.0
 31
0.0
  0
POLYLINE
  5
152
  8
0
  6
CONTINUOUS
 62
     0
 66
     1
 10
0.0
 20
0.0
 30
0.0
 70
     1
 40
0.5
 41
0.5
  0
VERTEX
  5
C6C
  8
0
  6
CONTINUOUS
 62
     0
 10
-0.25
 20
0.0
 30
0.0
 42
1.0
  0
VERTEX
  5
C6D
  8
0
  6
CONTINUOUS
 62
     0
 10
0.25
 20
0.0
 30
0.0
 42
1.0
  0
SEQEND
  5
C85
  8
0
  6
CONTINUOUS
 62
     0
  0
ENDBLK
  5
94
  8
0
  0
BLOCK
  8
0
  2
DOT
 70
     0
 10
0.0
 20
0.0
 30
0.0
  3
DOT
  1

  0
LINE
  5
F6
  8
0
  6
CONTINUOUS
 62
     0
 10
-2.0
 20
0.0
 30
0.0
 11
2.0
 21
0.0
 31
0.0
  0
POLYLINE
  5
F7
  8
0
  6
CONTINUOUS
 62
     0
 66
     1
 10
0.0
 20
0.0
 30
0.0
 70
     1
 40
0.5
 41
0.5
  0
VERTEX
  5
C6E
  8
0
  6
CONTINUOUS
 62
     0
 10
-0.25
 20
0.0
 30
0.0
 42
1.0
  0
VERTEX
  5
C6F
  8
0
  6
CONTINUOUS
 62
     0
 10
0.25
 20
0.0
 30
0.0
 42
1.0
  0
SEQEND
  5
C86
  8
0
  6
CONTINUOUS
 62
     0
  0
ENDBLK
  5
FC
  8
0
  0
BLOCK
  8
0
  2
_DOT
 70
     0
 10
0.0
 20
0.0
 30
0.0
  3
_DOT
  1

  0
LINE
  5
FE
  8
0
  6
CONTINUOUS
 62
     0
 10
-2.0
 20
0.0
 30
0.0
 11
2.0
 21
0.0
 31
0.0
  0
POLYLINE
  5
FF
  8
0
  6
CONTINUOUS
 62
     0
 66
     1
 10
0.0
 20
0.0
 30
0.0
 70
     1
 40
0.5
 41
0.5
  0
VERTEX
  5
C70
  8
0
  6
CONTINUOUS
 62
     0
 10
-0.25
 20
0.0
 30
0.0
 42
1.0
  0
VERTEX
  5
C71
  8
0
  6
CONTINUOUS
 62
     0
 10
0.25
 20
0.0
 30
0.0
 42
1.0
  0
SEQEND
  5
C87
  8
0
  6
CONTINUOUS
 62
     0
  0
ENDBLK
  5
104
  8
0
  0
BLOCK
  8
0
  2
AL_
 70
     0
 10
0.0
 20
0.0
 30
0.0
  3
AL_
  1

  0
SOLID
  5
106
  8
0
  6
CONTINUOUS
 62
     0
 10
0.0
 20
0.0
 30
0.0
 11
-2.400000000000091
 21
0.3999999999998636
 31
0.0
 12
-2.400000000000091
 22
-0.4000000000000909
 32
0.0
 13
-2.400000000000091
 23
-0.4000000000000909
 33
0.0
  0
LINE
  5
107
  8
0
  6
CONTINUOUS
 62
     0
 10
-3.519999999999982
 20
0.0
 30
0.0
 11
-2.400000000000091
 21
0.0
 31
0.0
  0
ENDBLK
  5
109
  8
0
  0
BLOCK
  8
0
  2
DOT_1
 70
     0
 10
0.0
 20
0.0
 30
0.0
  3
DOT_1
  1

  0
LINE
  5
10B
  8
0
  6
CONTINUOUS
 62
     0
 10
-2.0
 20
0.0
 30
0.0
 11
2.0
 21
0.0
 31
0.0
  0
CIRCLE
  5
10C
  8
0
  6
CONTINUOUS
 62
     0
 10
0.0
 20
0.0
 30
0.0
 40
0.5
  0
ENDBLK
  5
10E
  8
0
  0
BLOCK
  8
0
  2
RL_
 70
     0
 10
0.0
 20
0.0
 30
0.0
  3
RL_
  1

  0
LINE
  5
110
  8
0
  6
CONTINUOUS
 62
     0
 10
-1.6
 20
0.0
 30
0.0
 11
1.6
 21
0.0
 31
0.0
  0
LINE
  5
111
  8
0
  6
CONTINUOUS
 62
     0
 10
1.6
 20
1.6
 30
0.0
 11
-1.6
 21
-1.6
 31
0.0
  0
ENDBLK
  5
113
  8
0
  0
BLOCK
  8
0
  2
NL_
 70
     0
 10
0.0
 20
0.0
 30
0.0
  3
NL_
  1

  0
LINE
  5
115
  8
0
  6
CONTINUOUS
 62
     0
 10
-1.6
 20
0.0
 30
0.0
 11
1.6
 21
0.0
 31
0.0
  0
ENDBLK
  5
117
  8
0
  0
BLOCK
  8
0
  2
DOTS25
 70
     0
 10
0.0
 20
0.0
 30
0.0
  3
DOTS25
  1

  0
LINE
  5
119
  8
0
  6
CONTINUOUS
 62
     0
 10
-0.8000000000000007
 20
0.0
 30
0.0
 11
0.8000000000000007
 21
0.0
 31
0.0
  0
POLYLINE
  5
11A
  8
0
  6
CONTINUOUS
 62
     0
 66
     1
 10
0.0
 20
0.0
 30
0.0
 70
     1
 40
0.2
 41
0.2
  0
VERTEX
  5
C72
  8
0
  6
CONTINUOUS
 62
     0
 10
-0.0999999999999996
 20
0.0
 30
0.0
 42
1.0
  0
VERTEX
  5
C73
  8
0
  6
CONTINUOUS
 62
     0
 10
0.1000000000000005
 20
0.0
 30
0.0
 42
1.0
  0
SEQEND
  5
C88
  8
0
  6
CONTINUOUS
 62
     0
  0
ENDBLK
  5
11F
  8
0
  0
BLOCK
  8
0
  2
DOT_S25
 70
     0
 10
0.0
 20
0.0
 30
0.0
  3
DOT_S25
  1

  0
LINE
  5
121
  8
0
  6
CONTINUOUS
 62
     0
 10
-0.8000000000000007
 20
0.0
 30
0.0
 11
0.8000000000000007
 21
0.0
 31
0.0
  0
POLYLINE
  5
122
  8
0
  6
CONTINUOUS
 62
     0
 66
     1
 10
0.0
 20
0.0
 30
0.0
 70
     1
 40
0.2
 41
0.2
  0
VERTEX
  5
C74
  8
0
  6
CONTINUOUS
 62
     0
 10
-0.0999999999999996
 20
0.0
 30
0.0
 42
1.0
  0
VERTEX
  5
C75
  8
0
  6
CONTINUOUS
 62
     0
 10
0.1000000000000005
 20
0.0
 30
0.0
 42
1.0
  0
SEQEND
  5
C89
  8
0
  6
CONTINUOUS
 62
     0
  0
ENDBLK
  5
127
  8
0
  0
BLOCK
  8
0
  2
_DOTS25
 70
     0
 10
0.0
 20
0.0
 30
0.0
  3
_DOTS25
  1

  0
LINE
  5
129
  8
0
  6
CONTINUOUS
 62
     0
 10
-0.8000000000000007
 20
0.0
 30
0.0
 11
0.8000000000000007
 21
0.0
 31
0.0
  0
POLYLINE
  5
12A
  8
0
  6
CONTINUOUS
 62
     0
 66
     1
 10
0.0
 20
0.0
 30
0.0
 70
     1
 40
0.2
 41
0.2
  0
VERTEX
  5
C76
  8
0
  6
CONTINUOUS
 62
     0
 10
-0.0999999999999996
 20
0.0
 30
0.0
 42
1.0
  0
VERTEX
  5
C77
  8
0
  6
CONTINUOUS
 62
     0
 10
0.1000000000000005
 20
0.0
 30
0.0
 42
1.0
  0
SEQEND
  5
C8A
  8
0
  6
CONTINUOUS
 62
     0
  0
ENDBLK
  5
12F
  8
0
  0
BLOCK
  8
0
  2
DOT_1S25
 70
     0
 10
0.0
 20
0.0
 30
0.0
  3
DOT_1S25
  1

  0
LINE
  5
131
  8
0
  6
CONTINUOUS
 62
     0
 10
-0.8000000000000007
 20
0.0
 30
0.0
 11
0.8000000000000007
 21
0.0
 31
0.0
  0
CIRCLE
  5
132
  8
0
  6
CONTINUOUS
 62
     0
 10
0.0
 20
0.0
 30
0.0
 40
0.2
  0
ENDBLK
  5
134
  8
0
  0
BLOCK
  8
0
  2
RL_S25
 70
     0
 10
0.0
 20
0.0
 30
0.0
  3
RL_S25
  1

  0
LINE
  5
136
  8
0
  6
CONTINUOUS
 62
     0
 10
0.6400000000000007
 20
0.6399999999999999
 30
0.0
 11
-0.6399999999999998
 21
-0.6400000000000002
 31
0.0
  0
LINE
  5
137
  8
0
  6
CONTINUOUS
 62
     0
 10
-0.6400000000000007
 20
0.0
 30
0.0
 11
0.6400000000000007
 21
0.0
 31
0.0
  0
ENDBLK
  5
139
  8
0
  0
BLOCK
  8
0
  2
NL_S25
 70
     0
 10
0.0
 20
0.0
 30
0.0
  3
NL_S25
  1

  0
LINE
  5
13B
  8
0
  6
CONTINUOUS
 62
     0
 10
-0.6400000000001456
 20
0.0
 30
0.0
 11
0.6400000000001456
 21
0.0
 31
0.0
  0
ENDBLK
  5
13D
  8
0
  0
BLOCK
  8
0
  2
ARROW
 70
     0
 10
0.0
 20
0.0
 30
0.0
  3
ARROW
  1

  0
SOLID
  5
13F
  8
0
  6
CONTINUOUS
 62
     0
 10
-1.0
 20
0.176
 30
0.0
 11
-1.0
 21
-0.176
 31
0.0
 12
0.0
 22
0.0
 32
0.0
 13
0.0
 23
0.0
 33
0.0
  0
ENDBLK
  5
141
  8
0
  0
BLOCK
  8
0
  2
_NONE
 70
     0
 10
0.0
 20
0.0
 30
0.0
  3
_NONE
  1

  0
ENDBLK
  5
164
  8
0
  0
BLOCK
  8
0
  2
SAMPLE
 70
     0
 10
0.0
 20
0.0
 30
0.0
  3
SAMPLE
  1

  0
ENDBLK
  5
236
  8
0
  0
BLOCK
  8
0
  2
*X17
 70
     1
 10
0.0
 20
0.0
 30
0.0
  3
*X17
  1

  0
LINE
  5
33A
  8
0
  6
CONTINUOUS
 62
     0
 10
780.0936287239645
 20
257.7184941224025
 30
0.0
 11
781.8436287239656
 21
259.4684941224036
 31
0.0
  0
LINE
  5
33B
  8
0
  6
CONTINUOUS
 62
     0
 10
796.9098913052829
 20
274.5347567037211
 30
0.0
 11
798.6598913052843
 21
276.2847567037224
 31
0.0
  0
LINE
  5
33C
  8
0
  6
CONTINUOUS
 62
     0
 10
783.4436287239654
 20
261.0684941224035
 30
0.0
 11
784.7032895874848
 21
262.3281549859229
 31
0.0
  0
LINE
  5
33D
  8
0
  6
CONTINUOUS
 62
     0
 10
793.3743573993503
 20
270.9992227977884
 30
0.0
 11
795.3098913052831
 21
272.9347567037211
 31
0.0
  0
LINE
  5
33E
  8
0
  6
CONTINUOUS
 62
     0
 10
786.303289587485
 20
263.928154985923
 30
0.0
 11
786.5576739318828
 21
264.1825393303208
 31
0.0
  0
LINE
  5
33F
  8
0
  6
CONTINUOUS
 62
     0
 10
788.1576739318817
 20
265.7825393303197
 30
0.0
 11
791.2717191397861
 21
268.8965845382241
 31
0.0
  0
LINE
  5
340
  8
0
  6
CONTINUOUS
 62
     0
 10
780.0936287239645
 20
258.6023775988857
 30
0.0
 11
781.8436287239656
 21
260.3523775988868
 31
0.0
  0
LINE
  5
341
  8
0
  6
CONTINUOUS
 62
     0
 10
796.0260078287998
 20
274.5347567037211
 30
0.0
 11
797.7760078288011
 21
276.2847567037224
 31
0.0
  0
LINE
  5
342
  8
0
  6
CONTINUOUS
 62
     0
 10
783.4436287239654
 20
261.9523775988867
 30
0.0
 11
783.8194061110016
 21
262.3281549859229
 31
0.0
  0
LINE
  5
343
  8
0
  6
CONTINUOUS
 62
     0
 10
792.8717191397861
 20
271.3804680147074
 30
0.0
 11
794.4260078287999
 21
272.9347567037211
 31
0.0
  0
LINE
  5
344
  8
0
  6
CONTINUOUS
 62
     0
 10
785.4194061110018
 20
263.928154985923
 30
0.0
 11
786.5576739318822
 21
265.0664228068034
 31
0.0
  0
LINE
  5
345
  8
0
  6
CONTINUOUS
 62
     0
 10
788.157673931881
 20
266.6664228068022
 30
0.0
 11
791.2717191397861
 21
269.7804680147073
 31
0.0
  0
LINE
  5
346
  8
0
  6
CONTINUOUS
 62
     0
 10
780.0936287239645
 20
259.4862610753689
 30
0.0
 11
781.8436287239656
 21
261.23626107537
 31
0.0
  0
LINE
  5
347
  8
0
  6
CONTINUOUS
 62
     0
 10
795.1421243523166
 20
274.5347567037211
 30
0.0
 11
796.892124352318
 21
276.2847567037224
 31
0.0
  0
LINE
  5
348
  8
0
  6
CONTINUOUS
 62
     0
 10
784.5355226345185
 20
263.928154985923
 30
0.0
 11
786.4710565404513
 21
265.8636888918557
 31
0.0
  0
LINE
  5
349
  8
0
  6
CONTINUOUS
 62
     0
 10
792.8717191397861
 20
272.2643514911906
 30
0.0
 11
793.5421243523167
 21
272.9347567037211
 31
0.0
  0
LINE
  5
34A
  8
0
  6
CONTINUOUS
 62
     0
 10
788.1576739318804
 20
267.5503062832848
 30
0.0
 11
791.2717191397861
 21
270.6643514911905
 31
0.0
  0
LINE
  5
34B
  8
0
  6
CONTINUOUS
 62
     0
 10
780.0936287239645
 20
260.370144551852
 30
0.0
 11
781.8436287239656
 21
262.1201445518531
 31
0.0
  0
LINE
  5
34C
  8
0
  6
CONTINUOUS
 62
     0
 10
794.2582408758334
 20
274.5347567037211
 30
0.0
 11
796.0082408758348
 21
276.2847567037224
 31
0.0
  0
LINE
  5
34D
  8
0
  6
CONTINUOUS
 62
     0
 10
783.6516391580354
 20
263.928154985923
 30
0.0
 11
785.5871730639681
 21
265.8636888918557
 31
0.0
  0
LINE
  5
34E
  8
0
  6
CONTINUOUS
 62
     0
 10
788.1576739318798
 20
268.4341897597673
 30
0.0
 11
791.2717191397861
 21
271.5482349676737
 31
0.0
  0
LINE
  5
34F
  8
0
  6
CONTINUOUS
 62
     0
 10
780.0936287239645
 20
261.2540280283353
 30
0.0
 11
781.8436287239656
 21
263.0040280283363
 31
0.0
  0
LINE
  5
350
  8
0
  6
CONTINUOUS
 62
     0
 10
793.3743573993503
 20
274.5347567037211
 30
0.0
 11
795.1243573993515
 21
276.2847567037224
 31
0.0
  0
LINE
  5
351
  8
0
  6
CONTINUOUS
 62
     0
 10
783.4436287239655
 20
264.6040280283363
 30
0.0
 11
784.703289587485
 21
265.8636888918557
 31
0.0
  0
LINE
  5
352
  8
0
  6
CONTINUOUS
 62
     0
 10
788.1576739318791
 20
269.3180732362499
 30
0.0
 11
791.2717191397861
 21
272.4321184441569
 31
0.0
  0
LINE
  5
353
  8
0
  6
CONTINUOUS
 62
     0
 10
786.3032895874849
 20
267.4636888918556
 30
0.0
 11
786.5576739318803
 21
267.7180732362511
 31
0.0
  0
LINE
  5
354
  8
0
  6
CONTINUOUS
 62
     0
 10
780.0936287239645
 20
262.1379115048184
 30
0.0
 11
781.8436287239656
 21
263.8879115048195
 31
0.0
  0
LINE
  5
355
  8
0
  6
CONTINUOUS
 62
     0
 10
792.4904739228671
 20
274.5347567037211
 30
0.0
 11
794.2404739228683
 21
276.2847567037224
 31
0.0
  0
LINE
  5
356
  8
0
  6
CONTINUOUS
 62
     0
 10
783.4436287239655
 20
265.4879115048195
 30
0.0
 11
783.8194061110017
 21
265.8636888918557
 31
0.0
  0
LINE
  5
357
  8
0
  6
CONTINUOUS
 62
     0
 10
788.1576739318784
 20
270.2019567127324
 30
0.0
 11
790.8904739228672
 21
272.9347567037211
 31
0.0
  0
LINE
  5
358
  8
0
  6
CONTINUOUS
 62
     0
 10
785.4194061110016
 20
267.4636888918556
 30
0.0
 11
786.5576739318797
 21
268.6019567127336
 31
0.0
  0
LINE
  5
359
  8
0
  6
CONTINUOUS
 62
     0
 10
780.0936287239645
 20
263.0217949813016
 30
0.0
 11
781.8436287239656
 21
264.7717949813027
 31
0.0
  0
LINE
  5
35A
  8
0
  6
CONTINUOUS
 62
     0
 10
791.6065904463838
 20
274.5347567037211
 30
0.0
 11
793.3565904463852
 21
276.2847567037224
 31
0.0
  0
LINE
  5
35B
  8
0
  6
CONTINUOUS
 62
     0
 10
784.5355226345184
 20
267.4636888918556
 30
0.0
 11
786.4710565404512
 21
269.3992227977884
 31
0.0
  0
LINE
  5
35C
  8
0
  6
CONTINUOUS
 62
     0
 10
788.1576739318779
 20
271.0858401892149
 30
0.0
 11
790.006590446384
 21
272.9347567037211
 31
0.0
  0
LINE
  5
35D
  8
0
  6
CONTINUOUS
 62
     0
 10
780.0936287239645
 20
263.9056784577848
 30
0.0
 11
781.8436287239656
 21
265.6556784577859
 31
0.0
  0
LINE
  5
35E
  8
0
  6
CONTINUOUS
 62
     0
 10
790.7227069699007
 20
274.5347567037211
 30
0.0
 11
792.472706969902
 21
276.2847567037224
 31
0.0
  0
LINE
  5
35F
  8
0
  6
CONTINUOUS
 62
     0
 10
783.6516391580353
 20
267.4636888918556
 30
0.0
 11
785.587173063968
 21
269.3992227977884
 31
0.0
  0
LINE
  5
360
  8
0
  6
CONTINUOUS
 62
     0
 10
788.1576739318772
 20
271.9697236656975
 30
0.0
 11
789.1227069699008
 21
272.9347567037211
 31
0.0
  0
LINE
  5
361
  8
0
  6
CONTINUOUS
 62
     0
 10
780.0936287239645
 20
264.789561934268
 30
0.0
 11
781.8436287239656
 21
266.539561934269
 31
0.0
  0
LINE
  5
362
  8
0
  6
CONTINUOUS
 62
     0
 10
789.8388234934175
 20
274.5347567037211
 30
0.0
 11
791.5888234934188
 21
276.2847567037224
 31
0.0
  0
LINE
  5
363
  8
0
  6
CONTINUOUS
 62
     0
 10
783.4436287239655
 20
268.139561934269
 30
0.0
 11
784.7032895874848
 21
269.3992227977884
 31
0.0
  0
LINE
  5
364
  8
0
  6
CONTINUOUS
 62
     0
 10
788.1576739318765
 20
272.85360714218
 30
0.0
 11
788.2388234934176
 21
272.9347567037211
 31
0.0
  0
LINE
  5
365
  8
0
  6
CONTINUOUS
 62
     0
 10
786.3032895874848
 20
270.9992227977883
 30
0.0
 11
786.5576739318777
 21
271.2536071421812
 31
0.0
  0
LINE
  5
366
  8
0
  6
CONTINUOUS
 62
     0
 10
780.0936287239645
 20
265.6734454107511
 30
0.0
 11
781.8436287239656
 21
267.4234454107523
 31
0.0
  0
LINE
  5
367
  8
0
  6
CONTINUOUS
 62
     0
 10
788.9549400169343
 20
274.5347567037211
 30
0.0
 11
790.7049400169357
 21
276.2847567037224
 31
0.0
  0
LINE
  5
368
  8
0
  6
CONTINUOUS
 62
     0
 10
783.4436287239655
 20
269.0234454107522
 30
0.0
 11
783.8194061110016
 21
269.3992227977884
 31
0.0
  0
LINE
  5
369
  8
0
  6
CONTINUOUS
 62
     0
 10
785.4194061110016
 20
270.9992227977883
 30
0.0
 11
786.557673931877
 21
272.1374906186638
 31
0.0
  0
LINE
  5
36A
  8
0
  6
CONTINUOUS
 62
     0
 10
780.0936287239645
 20
266.5573288872343
 30
0.0
 11
781.8436287239656
 21
268.3073288872354
 31
0.0
  0
LINE
  5
36B
  8
0
  6
CONTINUOUS
 62
     0
 10
788.0710565404512
 20
274.5347567037211
 30
0.0
 11
789.8210565404524
 21
276.2847567037224
 31
0.0
  0
LINE
  5
36C
  8
0
  6
CONTINUOUS
 62
     0
 10
784.5355226345184
 20
270.9992227977883
 30
0.0
 11
786.4710565404513
 21
272.9347567037211
 31
0.0
  0
LINE
  5
36D
  8
0
  6
CONTINUOUS
 62
     0
 10
780.0936287239645
 20
267.4412123637175
 30
0.0
 11
781.8436287239656
 21
269.1912123637186
 31
0.0
  0
LINE
  5
36E
  8
0
  6
CONTINUOUS
 62
     0
 10
787.187173063968
 20
274.5347567037211
 30
0.0
 11
788.9371730639692
 21
276.2847567037224
 31
0.0
  0
LINE
  5
36F
  8
0
  6
CONTINUOUS
 62
     0
 10
783.6516391580352
 20
270.9992227977883
 30
0.0
 11
785.5871730639681
 21
272.9347567037211
 31
0.0
  0
LINE
  5
370
  8
0
  6
CONTINUOUS
 62
     0
 10
780.0936287239645
 20
268.3250958402007
 30
0.0
 11
781.8436287239656
 21
270.0750958402018
 31
0.0
  0
LINE
  5
371
  8
0
  6
CONTINUOUS
 62
     0
 10
786.3032895874848
 20
274.5347567037211
 30
0.0
 11
788.0532895874861
 21
276.2847567037224
 31
0.0
  0
LINE
  5
372
  8
0
  6
CONTINUOUS
 62
     0
 10
783.4436287239655
 20
271.6750958402018
 30
0.0
 11
784.703289587485
 21
272.9347567037211
 31
0.0
  0
LINE
  5
373
  8
0
  6
CONTINUOUS
 62
     0
 10
780.0936287239645
 20
269.2089793166839
 30
0.0
 11
781.8436287239656
 21
270.958979316685
 31
0.0
  0
LINE
  5
374
  8
0
  6
CONTINUOUS
 62
     0
 10
785.4194061110016
 20
274.5347567037211
 30
0.0
 11
787.1694061110029
 21
276.2847567037224
 31
0.0
  0
LINE
  5
375
  8
0
  6
CONTINUOUS
 62
     0
 10
783.4436287239655
 20
272.5589793166849
 30
0.0
 11
783.8194061110017
 21
272.9347567037211
 31
0.0
  0
LINE
  5
376
  8
0
  6
CONTINUOUS
 62
     0
 10
780.0936287239645
 20
270.0928627931671
 30
0.0
 11
781.8436287239656
 21
271.8428627931681
 31
0.0
  0
LINE
  5
377
  8
0
  6
CONTINUOUS
 62
     0
 10
784.5355226345184
 20
274.5347567037211
 30
0.0
 11
786.2855226345197
 21
276.2847567037224
 31
0.0
  0
LINE
  5
378
  8
0
  6
CONTINUOUS
 62
     0
 10
780.0936287239645
 20
270.9767462696503
 30
0.0
 11
781.8436287239656
 21
272.7267462696514
 31
0.0
  0
LINE
  5
379
  8
0
  6
CONTINUOUS
 62
     0
 10
783.6516391580352
 20
274.5347567037211
 30
0.0
 11
785.4016391580366
 21
276.2847567037224
 31
0.0
  0
LINE
  5
37A
  8
0
  6
CONTINUOUS
 62
     0
 10
780.0936287239645
 20
271.8606297461334
 30
0.0
 11
781.8436287239656
 21
273.6106297461345
 31
0.0
  0
LINE
  5
37B
  8
0
  6
CONTINUOUS
 62
     0
 10
782.767755681552
 20
274.5347567037211
 30
0.0
 11
784.5177556815534
 21
276.2847567037224
 31
0.0
  0
LINE
  5
37C
  8
0
  6
CONTINUOUS
 62
     0
 10
780.0936287239645
 20
272.7445132226167
 30
0.0
 11
781.8436287239656
 21
274.4945132226177
 31
0.0
  0
LINE
  5
37D
  8
0
  6
CONTINUOUS
 62
     0
 10
781.8838722050689
 20
274.5347567037211
 30
0.0
 11
783.6338722050701
 21
276.2847567037224
 31
0.0
  0
LINE
  5
37E
  8
0
  6
CONTINUOUS
 62
     0
 10
780.0936287239645
 20
273.6283966990998
 30
0.0
 11
782.749988728587
 21
276.2847567037224
 31
0.0
  0
LINE
  5
37F
  8
0
  6
CONTINUOUS
 62
     0
 10
780.0936287239645
 20
274.512280175583
 30
0.0
 11
781.8661052521038
 21
276.2847567037224
 31
0.0
  0
LINE
  5
380
  8
0
  6
CONTINUOUS
 62
     0
 10
780.0936287239645
 20
275.3961636520662
 30
0.0
 11
780.9822217756206
 21
276.2847567037224
 31
0.0
  0
LINE
  5
381
  8
0
  6
CONTINUOUS
 62
     0
 10
780.0936287239645
 20
276.2800471285494
 30
0.0
 11
780.0983382991374
 21
276.2847567037224
 31
0.0
  0
LINE
  5
382
  8
0
  6
CONTINUOUS
 62
     0
 10
780.3016391580367
 20
257.0426210799915
 30
0.0
 11
782.0516391580353
 21
258.7926210799902
 31
0.0
  0
LINE
  5
383
  8
0
  6
CONTINUOUS
 62
     0
 10
797.5857643476963
 20
274.3267462696512
 30
0.0
 11
799.3357643476953
 21
276.0767462696502
 31
0.0
  0
LINE
  5
384
  8
0
  6
CONTINUOUS
 62
     0
 10
783.4436287239654
 20
260.1846106459203
 30
0.0
 11
785.5871730639681
 21
262.3281549859229
 31
0.0
  0
LINE
  5
385
  8
0
  6
CONTINUOUS
 62
     0
 10
794.2582408758335
 20
270.9992227977884
 30
0.0
 11
796.1937747817663
 21
272.9347567037211
 31
0.0
  0
LINE
  5
386
  8
0
  6
CONTINUOUS
 62
     0
 10
788.1576739318823
 20
264.8986558538372
 30
0.0
 11
791.2717191397861
 21
268.012701061741
 31
0.0
  0
LINE
  5
387
  8
0
  6
CONTINUOUS
 62
     0
 10
781.1855226345198
 20
257.0426210799915
 30
0.0
 11
782.9355226345185
 21
258.7926210799902
 31
0.0
  0
LINE
  5
388
  8
0
  6
CONTINUOUS
 62
     0
 10
797.5857643476963
 20
273.442862793168
 30
0.0
 11
799.3357643476953
 21
275.1928627931671
 31
0.0
  0
LINE
  5
389
  8
0
  6
CONTINUOUS
 62
     0
 10
783.4436287239654
 20
259.300727169437
 30
0.0
 11
786.4710565404512
 21
262.3281549859229
 31
0.0
  0
LINE
  5
38A
  8
0
  6
CONTINUOUS
 62
     0
 10
795.1421243523167
 20
270.9992227977884
 30
0.0
 11
797.0776582582495
 21
272.9347567037211
 31
0.0
  0
LINE
  5
38B
  8
0
  6
CONTINUOUS
 62
     0
 10
788.157673931883
 20
264.0147723773546
 30
0.0
 11
791.2717191397861
 21
267.1288175852578
 31
0.0
  0
LINE
  5
38C
  8
0
  6
CONTINUOUS
 62
     0
 10
792.8717191397861
 20
268.7288175852578
 30
0.0
 11
793.5421243523167
 21
269.3992227977884
 31
0.0
  0
LINE
  5
38D
  8
0
  6
CONTINUOUS
 62
     0
 10
782.069406111003
 20
257.0426210799915
 30
0.0
 11
786.5576739318848
 21
261.5308889008733
 31
0.0
  0
LINE
  5
38E
  8
0
  6
CONTINUOUS
 62
     0
 10
796.0260078288
 20
270.9992227977884
 30
0.0
 11
799.3357643476953
 21
274.3089793166839
 31
0.0
  0
LINE
  5
38F
  8
0
  6
CONTINUOUS
 62
     0
 10
788.9549400169344
 20
263.9281549859229
 30
0.0
 11
791.2717191397861
 21
266.2449341087746
 31
0.0
  0
LINE
  5
390
  8
0
  6
CONTINUOUS
 62
     0
 10
792.8717191397861
 20
267.8449341087747
 30
0.0
 11
794.4260078287999
 21
269.3992227977884
 31
0.0
  0
LINE
  5
391
  8
0
  6
CONTINUOUS
 62
     0
 10
782.9532895874862
 20
257.0426210799915
 30
0.0
 11
786.5576739318855
 21
260.6470054243908
 31
0.0
  0
LINE
  5
392
  8
0
  6
CONTINUOUS
 62
     0
 10
796.909891305283
 20
270.9992227977884
 30
0.0
 11
799.3357643476953
 21
273.4250958402007
 31
0.0
  0
LINE
  5
393
  8
0
  6
CONTINUOUS
 62
     0
 10
788.1576739318843
 20
262.2470054243896
 30
0.0
 11
788.2388234934176
 21
262.3281549859229
 31
0.0
  0
LINE
  5
394
  8
0
  6
CONTINUOUS
 62
     0
 10
792.8717191397861
 20
266.9610506322915
 30
0.0
 11
795.3098913052831
 21
269.3992227977884
 31
0.0
  0
LINE
  5
395
  8
0
  6
CONTINUOUS
 62
     0
 10
789.8388234934176
 20
263.9281549859229
 30
0.0
 11
791.2717191397861
 21
265.3610506322914
 31
0.0
  0
LINE
  5
396
  8
0
  6
CONTINUOUS
 62
     0
 10
783.8371730639693
 20
257.0426210799915
 30
0.0
 11
786.5576739318861
 21
259.7631219479082
 31
0.0
  0
LINE
  5
397
  8
0
  6
CONTINUOUS
 62
     0
 10
797.5857643476963
 20
270.7912123637185
 30
0.0
 11
799.3357643476953
 21
272.5412123637175
 31
0.0
  0
LINE
  5
398
  8
0
  6
CONTINUOUS
 62
     0
 10
788.1576739318849
 20
261.3631219479071
 30
0.0
 11
789.1227069699008
 21
262.3281549859229
 31
0.0
  0
LINE
  5
399
  8
0
  6
CONTINUOUS
 62
     0
 10
792.8717191397861
 20
266.0771671558083
 30
0.0
 11
795.9857643476964
 21
269.1912123637185
 31
0.0
  0
LINE
  5
39A
  8
0
  6
CONTINUOUS
 62
     0
 10
790.7227069699007
 20
263.9281549859229
 30
0.0
 11
791.2717191397861
 21
264.4771671558082
 31
0.0
  0
LINE
  5
39B
  8
0
  6
CONTINUOUS
 62
     0
 10
784.7210565404525
 20
257.0426210799915
 30
0.0
 11
786.5576739318868
 21
258.8792384714257
 31
0.0
  0
LINE
  5
39C
  8
0
  6
CONTINUOUS
 62
     0
 10
797.5857643476963
 20
269.9073288872353
 30
0.0
 11
799.3357643476953
 21
271.6573288872343
 31
0.0
  0
LINE
  5
39D
  8
0
  6
CONTINUOUS
 62
     0
 10
788.1576739318856
 20
260.4792384714245
 30
0.0
 11
790.0065904463839
 21
262.3281549859229
 31
0.0
  0
LINE
  5
39E
  8
0
  6
CONTINUOUS
 62
     0
 10
792.8717191397861
 20
265.1932836793251
 30
0.0
 11
795.9857643476964
 21
268.3073288872353
 31
0.0
  0
LINE
  5
39F
  8
0
  6
CONTINUOUS
 62
     0
 10
785.6049400169358
 20
257.0426210799915
 30
0.0
 11
787.3549400169344
 21
258.7926210799902
 31
0.0
  0
LINE
  5
3A0
  8
0
  6
CONTINUOUS
 62
     0
 10
797.5857643476963
 20
269.0234454107521
 30
0.0
 11
799.3357643476953
 21
270.7734454107512
 31
0.0
  0
LINE
  5
3A1
  8
0
  6
CONTINUOUS
 62
     0
 10
788.1576739318863
 20
259.595354994942
 30
0.0
 11
790.8904739228672
 21
262.3281549859229
 31
0.0
  0
LINE
  5
3A2
  8
0
  6
CONTINUOUS
 62
     0
 10
792.8717191397861
 20
264.3094002028419
 30
0.0
 11
795.9857643476964
 21
267.4234454107522
 31
0.0
  0
LINE
  5
3A3
  8
0
  6
CONTINUOUS
 62
     0
 10
786.4888234934189
 20
257.0426210799915
 30
0.0
 11
791.2717191397861
 21
261.8255167263587
 31
0.0
  0
LINE
  5
3A4
  8
0
  6
CONTINUOUS
 62
     0
 10
797.5857643476963
 20
268.139561934269
 30
0.0
 11
799.3357643476953
 21
269.8895619342679
 31
0.0
  0
LINE
  5
3A5
  8
0
  6
CONTINUOUS
 62
     0
 10
792.8717191397861
 20
263.4255167263588
 30
0.0
 11
795.9857643476964
 21
266.539561934269
 31
0.0
  0
LINE
  5
3A6
  8
0
  6
CONTINUOUS
 62
     0
 10
787.3727069699021
 20
257.0426210799915
 30
0.0
 11
791.2717191397861
 21
260.9416332498755
 31
0.0
  0
LINE
  5
3A7
  8
0
  6
CONTINUOUS
 62
     0
 10
797.5857643476963
 20
267.2556784577858
 30
0.0
 11
799.3357643476953
 21
269.0056784577848
 31
0.0
  0
LINE
  5
3A8
  8
0
  6
CONTINUOUS
 62
     0
 10
792.8717191397861
 20
262.5416332498755
 30
0.0
 11
795.9857643476964
 21
265.6556784577858
 31
0.0
  0
LINE
  5
3A9
  8
0
  6
CONTINUOUS
 62
     0
 10
788.2565904463853
 20
257.0426210799915
 30
0.0
 11
791.2717191397861
 21
260.0577497733923
 31
0.0
  0
LINE
  5
3AA
  8
0
  6
CONTINUOUS
 62
     0
 10
797.5857643476963
 20
266.3717949813026
 30
0.0
 11
799.3357643476953
 21
268.1217949813016
 31
0.0
  0
LINE
  5
3AB
  8
0
  6
CONTINUOUS
 62
     0
 10
792.8717191397861
 20
261.6577497733924
 30
0.0
 11
795.9857643476964
 21
264.7717949813026
 31
0.0
  0
LINE
  5
3AC
  8
0
  6
CONTINUOUS
 62
     0
 10
789.1404739228684
 20
257.0426210799915
 30
0.0
 11
791.2717191397861
 21
259.1738662969091
 31
0.0
  0
LINE
  5
3AD
  8
0
  6
CONTINUOUS
 62
     0
 10
797.5857643476963
 20
265.4879115048194
 30
0.0
 11
799.3357643476953
 21
267.2379115048184
 31
0.0
  0
LINE
  5
3AE
  8
0
  6
CONTINUOUS
 62
     0
 10
792.8717191397861
 20
260.7738662969092
 30
0.0
 11
795.9857643476964
 21
263.8879115048194
 31
0.0
  0
LINE
  5
3AF
  8
0
  6
CONTINUOUS
 62
     0
 10
790.0243573993516
 20
257.0426210799915
 30
0.0
 11
791.7743573993504
 21
258.7926210799902
 31
0.0
  0
LINE
  5
3B0
  8
0
  6
CONTINUOUS
 62
     0
 10
797.5857643476963
 20
264.6040280283362
 30
0.0
 11
799.3357643476953
 21
266.3540280283352
 31
0.0
  0
LINE
  5
3B1
  8
0
  6
CONTINUOUS
 62
     0
 10
792.8717191397861
 20
259.889982820426
 30
0.0
 11
795.9857643476964
 21
263.0040280283362
 31
0.0
  0
LINE
  5
3B2
  8
0
  6
CONTINUOUS
 62
     0
 10
790.9082408758348
 20
257.0426210799915
 30
0.0
 11
792.6582408758335
 21
258.7926210799902
 31
0.0
  0
LINE
  5
3B3
  8
0
  6
CONTINUOUS
 62
     0
 10
797.5857643476963
 20
263.720144551853
 30
0.0
 11
799.3357643476953
 21
265.470144551852
 31
0.0
  0
LINE
  5
3B4
  8
0
  6
CONTINUOUS
 62
     0
 10
792.8717191397861
 20
259.0060993439428
 30
0.0
 11
795.9857643476964
 21
262.1201445518531
 31
0.0
  0
LINE
  5
3B5
  8
0
  6
CONTINUOUS
 62
     0
 10
791.792124352318
 20
257.0426210799914
 30
0.0
 11
795.9857643476964
 21
261.2362610753698
 31
0.0
  0
LINE
  5
3B6
  8
0
  6
CONTINUOUS
 62
     0
 10
797.5857643476963
 20
262.8362610753699
 30
0.0
 11
799.3357643476953
 21
264.5862610753688
 31
0.0
  0
LINE
  5
3B7
  8
0
  6
CONTINUOUS
 62
     0
 10
792.6760078288012
 20
257.0426210799914
 30
0.0
 11
795.9857643476964
 21
260.3523775988867
 31
0.0
  0
LINE
  5
3B8
  8
0
  6
CONTINUOUS
 62
     0
 10
797.5857643476963
 20
261.9523775988866
 30
0.0
 11
799.3357643476953
 21
263.7023775988857
 31
0.0
  0
LINE
  5
3B9
  8
0
  6
CONTINUOUS
 62
     0
 10
793.5598913052844
 20
257.0426210799914
 30
0.0
 11
795.9857643476964
 21
259.4684941224035
 31
0.0
  0
LINE
  5
3BA
  8
0
  6
CONTINUOUS
 62
     0
 10
797.5857643476963
 20
261.0684941224035
 30
0.0
 11
799.3357643476953
 21
262.8184941224025
 31
0.0
  0
LINE
  5
3BB
  8
0
  6
CONTINUOUS
 62
     0
 10
794.4437747817675
 20
257.0426210799914
 30
0.0
 11
796.1937747817663
 21
258.7926210799902
 31
0.0
  0
LINE
  5
3BC
  8
0
  6
CONTINUOUS
 62
     0
 10
797.5857643476963
 20
260.1846106459203
 30
0.0
 11
799.3357643476953
 21
261.9346106459193
 31
0.0
  0
LINE
  5
3BD
  8
0
  6
CONTINUOUS
 62
     0
 10
795.3276582582507
 20
257.0426210799914
 30
0.0
 11
797.0776582582495
 21
258.7926210799902
 31
0.0
  0
LINE
  5
3BE
  8
0
  6
CONTINUOUS
 62
     0
 10
797.5857643476963
 20
259.3007271694371
 30
0.0
 11
799.3357643476953
 21
261.0507271694361
 31
0.0
  0
LINE
  5
3BF
  8
0
  6
CONTINUOUS
 62
     0
 10
796.2115417347339
 20
257.0426210799914
 30
0.0
 11
799.3357643476953
 21
260.1668436929529
 31
0.0
  0
LINE
  5
3C0
  8
0
  6
CONTINUOUS
 62
     0
 10
797.095425211217
 20
257.0426210799914
 30
0.0
 11
799.3357643476953
 21
259.2829602164697
 31
0.0
  0
LINE
  5
3C1
  8
0
  6
CONTINUOUS
 62
     0
 10
797.9793086877003
 20
257.0426210799914
 30
0.0
 11
799.3357643476953
 21
258.3990767399865
 31
0.0
  0
LINE
  5
3C2
  8
0
  6
CONTINUOUS
 62
     0
 10
798.8631921641835
 20
257.0426210799914
 30
0.0
 11
799.3357643476953
 21
257.5151932635034
 31
0.0
  0
ENDBLK
  5
3C3
  8
0
  0
ENDSEC
  0
SECTION
  2
ENTITIES
  0
POLYLINE
  5
3EC
  8
PP
 66
     1
 10
0.0
 20
0.0
 30
0.0
 70
     1
  0
VERTEX
  5
C2E
  8
PP
 10
1069.205772443282
 20
891.5107049750304
 30
0.0
  0
VERTEX
  5
C2F
  8
PP
 10
1069.205772057605
 20
6291.458917302088
 30
0.0
  0
VERTEX
  5
C30
  8
PP
 10
8869.13096764115
 20
6291.458917857061
 30
0.0
  0
VERTEX
  5
C31
  8
PP
 10
8869.130968026826
 20
891.5107055300041
 30
0.0
  0
SEQEND
  5
C79
  8
PP
  0
LINE
  5
3ED
  8
PP
 10
8401.135456257814
 20
1367.506140513332
 30
0.0
 11
8401.135456289829
 21
919.5104369721239
 31
0.0
  0
LINE
  5
3EE
  8
PP
 10
8141.137949738355
 20
1367.50614049165
 30
0.0
 11
8841.131236521493
 21
1367.506140540537
 31
0.0
  0
LINE
  5
3EF
  8
PP
 10
8141.137949746359
 20
1255.507214606355
 30
0.0
 11
8841.131236529496
 21
1255.507214655235
 31
0.0
  0
LINE
  5
3F0
  8
PP
 10
8141.137949754362
 20
1143.50828872106
 30
0.0
 11
8841.1312365375
 21
1143.50828876994
 31
0.0
  0
LINE
  5
3F1
  8
PP
 10
8141.137949762366
 20
1031.509362835744
 30
0.0
 11
8841.131236545503
 21
1031.509362884631
 31
0.0
  0
TEXT
  5
3F2
  8
CHINA
  6
CONTINUOUS
 10
8161.622287208718
 20
950.7154438407533
 30
0.0
 40
49.99952048411945
  1
張號
  7
AEH
  0
TEXT
  5
3F3
  8
CHINA
 10
8651.2572
 20
1063.6713
 30
0.0
 40
40.0
  1
A1-2
  7
ITALIC
 72
     2
 11
8803.7572
 21
1063.6713
 31
0.0
  0
TEXT
  5
3F4
  8
CHINA
  6
CONTINUOUS
 10
8158.016822703163
 20
1277.575515959726
 30
0.0
 40
49.99952048310166
  1
日期
  7
AEH
  0
TEXT
  5
3F5
  8
CHINA
  6
CONTINUOUS
 10
8159.337775223083
 20
1168.708046685483
 30
0.0
 40
49.99952048549776
  1
比例尺
  7
AEH
  0
TEXT
  5
3F6
  8
CHINA
 10
8161.495433231272
 20
1060.909080520913
 30
0.0
 40
49.99952048585163
  1
圖號
  7
AEH
  0
LINE
  5
3F7
  8
CHINA
 10
8401.135456289829
 20
919.5104369721239
 30
0.0
 11
8841.131236545503
 21
1031.509362884631
 31
0.0
  0
TEXT
  5
3F8
  8
CHINA
 10
8487.9392
 20
974.1142
 30
0.0
 40
39.99
  1
#
  7
ITALIC
  0
TEXT
  5
3F9
  8
CHINA
 10
8426.650492648252
 20
1175.751296379317
 30
0.0
 40
40.0
  1
A1 S=1/100
  7
ITALIC
 72
     2
 11
8798.317159314918
 21
1175.751296379317
 31
0.0
  0
TEXT
  5
3FA
  8
CHINA
 10
8567.099999999999
 20
1287.7142
 30
0.0
 40
40.0
  1
2015.06
  7
ITALIC
 72
     2
 11
8803.349999999999
 21
1287.7142
 31
0.0
  0
TEXT
  5
3FB
  8
CHINA
 10
8738.359199999999
 20
937.7142
 30
0.0
 40
40.0
  1
##
  7
ITALIC
 72
     2
 11
8803.359199999999
 21
937.7142
 31
0.0
  0
POLYLINE
  5
3FC
  8
PP
 66
     1
 10
0.0
 20
0.0
 30
0.0
 70
     1
  0
VERTEX
  5
C32
  8
PP
 10
1069.205772443282
 20
891.5107049750304
 30
0.0
  0
VERTEX
  5
C33
  8
PP
 10
1069.205772057605
 20
6291.458917302113
 30
0.0
  0
VERTEX
  5
C34
  8
PP
 10
8869.13096764115
 20
6291.458917857061
 30
0.0
  0
VERTEX
  5
C35
  8
PP
 10
8869.130968026826
 20
891.5107055300041
 30
0.0
  0
SEQEND
  5
C7A
  8
PP
  0
POLYLINE
  5
3FD
  8
PP
 66
     1
 10
0.0
 20
0.0
 30
0.0
 70
     1
  0
VERTEX
  5
C36
  8
PP
 10
1097.205503912599
 20
919.5104364483495
 30
0.0
  0
VERTEX
  5
C37
  8
PP
 10
8841.131236553507
 20
919.510436999336
 30
0.0
  0
VERTEX
  5
C38
  8
PP
 10
8841.131236171832
 20
6263.459186383731
 30
0.0
  0
VERTEX
  5
C39
  8
PP
 10
1097.205503530924
 20
6263.45918583277
 30
0.0
  0
SEQEND
  5
C7B
  8
PP
  0
POLYLINE
  5
3FE
  8
PP
 66
     1
 10
0.0
 20
0.0
 30
0.0
  0
VERTEX
  5
C3A
  8
PP
 10
9240.126213161175
 20
791.3419583817822
 30
0.0
  0
VERTEX
  5
C3B
  8
PP
 10
9240.126213161175
 20
621.6363309417875
 30
0.0
  0
VERTEX
  5
C3C
  8
PP
 10
9070.420585721173
 20
621.6363309417875
 30
0.0
  0
SEQEND
  5
C7C
  8
PP
  0
TEXT
  5
3FF
  8
2ND-
 62
     3
 10
8166.337708002831
 20
2197.098184512405
 30
0.0
 40
41.99959719709928
  1
TEL: ( 0 6 ) 3 1 3 - 8 1 9 8
 41
0.5999999999997633
  7
AEH
  0
POLYLINE
  5
400
  8
2ND-
 62
     3
 66
     1
 10
0.0
 20
0.0
 30
0.0
 70
     1
  0
VERTEX
  5
C3D
  8
2ND-
 62
     3
 10
8412.830697165942
 20
2429.739299718859
 30
0.0
  0
VERTEX
  5
C3E
  8
2ND-
 62
     3
 10
8587.829018820486
 20
2429.739299731374
 30
0.0
  0
VERTEX
  5
C3F
  8
2ND-
 62
     3
 10
8587.829018807972
 20
2604.737621385903
 30
0.0
  0
VERTEX
  5
C40
  8
2ND-
 62
     3
 10
8412.83069715345
 20
2604.737621373396
 30
0.0
  0
SEQEND
  5
C7D
  8
2ND-
 62
     3
  0
POLYLINE
  5
401
  8
2ND-
 62
     3
 66
     1
 10
0.0
 20
0.0
 30
0.0
 70
     1
  0
VERTEX
  5
C41
  8
2ND-
 62
     3
 10
8443.297397376396
 20
2492.360045193142
 30
0.0
  0
VERTEX
  5
C42
  8
2ND-
 62
     3
 10
8443.297397375138
 20
2509.962830646226
 30
0.0
  0
VERTEX
  5
C43
  8
2ND-
 62
     3
 10
8471.618197914018
 20
2509.962830648256
 30
0.0
  0
VERTEX
  5
C44
  8
2ND-
 62
     3
 10
8471.618197915277
 20
2492.360045195172
 30
0.0
  0
SEQEND
  5
C7E
  8
2ND-
 62
     3
  0
POLYLINE
  5
402
  8
2ND-
 62
     3
 66
     1
 10
0.0
 20
0.0
 30
0.0
 70
     1
  0
VERTEX
  5
C45
  8
2ND-
 62
     3
 10
8443.29739737409
 20
2524.514090450358
 30
0.0
  0
VERTEX
  5
C46
  8
2ND-
 62
     3
 10
8443.297397372831
 20
2542.116875903442
 30
0.0
  0
VERTEX
  5
C47
  8
2ND-
 62
     3
 10
8471.61819791169
 20
2542.116875905464
 30
0.0
  0
VERTEX
  5
C48
  8
2ND-
 62
     3
 10
8471.618197912949
 20
2524.514090452395
 30
0.0
  0
SEQEND
  5
C7F
  8
2ND-
 62
     3
  0
POLYLINE
  5
403
  8
2ND-
 62
     3
 66
     1
 10
0.0
 20
0.0
 30
0.0
 70
     1
  0
VERTEX
  5
C49
  8
2ND-
 62
     3
 10
8443.29739737179
 20
2556.66813570758
 30
0.0
  0
VERTEX
  5
C4A
  8
2ND-
 62
     3
 10
8443.297397370525
 20
2574.270921160657
 30
0.0
  0
VERTEX
  5
C4B
  8
2ND-
 62
     3
 10
8471.618197909362
 20
2574.270921162687
 30
0.0
  0
VERTEX
  5
C4C
  8
2ND-
 62
     3
 10
8471.61819791062
 20
2556.668135709603
 30
0.0
  0
SEQEND
  5
C80
  8
2ND-
 62
     3
  0
POLYLINE
  5
404
  8
2ND-
 62
     3
 66
     1
 10
0.0
 20
0.0
 30
0.0
 70
     1
  0
VERTEX
  5
C4D
  8
2ND-
 62
     3
 10
8486.1694577135
 20
2574.270921163735
 30
0.0
  0
VERTEX
  5
C4E
  8
2ND-
 62
     3
 10
8514.490258252308
 20
2574.270921165743
 30
0.0
  0
VERTEX
  5
C4F
  8
2ND-
 62
     3
 10
8514.490258258158
 20
2492.360045198228
 30
0.0
  0
VERTEX
  5
C50
  8
2ND-
 62
     3
 10
8486.169457719416
 20
2492.360045196213
 30
0.0
  0
SEQEND
  5
C81
  8
2ND-
 62
     3
  0
POLYLINE
  5
405
  8
2ND-
 62
     3
 66
     1
 10
0.0
 20
0.0
 30
0.0
 70
     1
  0
VERTEX
  5
C51
  8
2ND-
 62
     3
 10
8529.041518058753
 20
2542.116875909568
 30
0.0
  0
VERTEX
  5
C52
  8
2ND-
 62
     3
 10
8557.362318597561
 20
2542.116875911591
 30
0.0
  0
VERTEX
  5
C53
  8
2ND-
 62
     3
 10
8557.362318604473
 20
2445.654740139945
 30
0.0
  0
VERTEX
  5
C54
  8
2ND-
 62
     3
 10
8571.91357840859
 20
2445.654740140993
 30
0.0
  0
VERTEX
  5
C55
  8
2ND-
 62
     3
 10
8571.91357840066
 20
2556.66813571677
 30
0.0
  0
VERTEX
  5
C56
  8
2ND-
 62
     3
 10
8529.041518057713
 20
2556.668135713707
 30
0.0
  0
VERTEX
  5
C57
  8
2ND-
 62
     3
 10
8529.041518056447
 20
2574.270921166791
 30
0.0
  0
VERTEX
  5
C58
  8
2ND-
 62
     3
 10
8571.9135783994
 20
2574.270921169847
 30
0.0
  0
VERTEX
  5
C59
  8
2ND-
 62
     3
 10
8571.913578398353
 20
2588.822180973985
 30
0.0
  0
VERTEX
  5
C5A
  8
2ND-
 62
     3
 10
8428.746137565367
 20
2588.822180963755
 30
0.0
  0
VERTEX
  5
C5B
  8
2ND-
 62
     3
 10
8428.746137575583
 20
2445.654740130755
 30
0.0
  0
VERTEX
  5
C5C
  8
2ND-
 62
     3
 10
8443.297397379722
 20
2445.654740131796
 30
0.0
  0
VERTEX
  5
C5D
  8
2ND-
 62
     3
 10
8443.297397377437
 20
2477.808785389018
 30
0.0
  0
VERTEX
  5
C5E
  8
2ND-
 62
     3
 10
8471.618197916325
 20
2477.808785391034
 30
0.0
  0
VERTEX
  5
C5F
  8
2ND-
 62
     3
 10
8471.618197918653
 20
2445.654740133833
 30
0.0
  0
VERTEX
  5
C60
  8
2ND-
 62
     3
 10
8486.169457722763
 20
2445.654740134859
 30
0.0
  0
VERTEX
  5
C61
  8
2ND-
 62
     3
 10
8486.169457720463
 20
2477.808785392082
 30
0.0
  0
VERTEX
  5
C62
  8
2ND-
 62
     3
 10
8514.490258259199
 20
2477.80878539409
 30
0.0
  0
VERTEX
  5
C63
  8
2ND-
 62
     3
 10
8514.490258261505
 20
2445.654740136889
 30
0.0
  0
VERTEX
  5
C64
  8
2ND-
 62
     3
 10
8529.041518065615
 20
2445.654740137915
 30
0.0
  0
SEQEND
  5
C82
  8
2ND-
 62
     3
  0
INSERT
  5
406
  8
2ND-
  6
CONTINUOUS
 62
     4
  2
*X17
 10
1318.240032888978
 20
92.0555741681901
 30
0.0
 41
9.094537377582421
 42
9.094537377582421
 43
9.094537377582421
1001
ACAD
1000
HATCH
1002
{
1070
    16
1000
ANSI31
1040
5.0
1040
0.0
1002
}
  0
TEXT
  5
407
  8
2ND-
 62
     3
 10
8169.852759964613
 20
2262.897553456206
 30
0.0
 40
41.99959719716635
  1
七巷20弄38號五樓之五
  7
AEH
  0
TEXT
  5
408
  8
2ND-
 62
     3
 10
8216.049727076266
 20
2325.903413825124
 30
0.0
 40
41.99999999997664
  1
台南市永康區中華路
  7
AEH
  0
LINE
  5
409
  8
CHINA
 10
8701.132578992083
 20
3815.48266349706
 30
0.0
 11
8841.131236342992
 21
3927.481589379714
 31
0.0
  0
LINE
  5
40A
  8
CHINA
  6
CONTINUOUS
 10
8151.017718734389
 20
3838.860660988249
 30
0.0
 11
8207.017181677054
 21
3838.860660992178
 31
0.0
  0
TEXT
  5
40B
  8
CHINA
 10
8170.137671593091
 20
3844.68238301707
 30
0.0
 40
27.99973148502158
  1
2
 41
0.9999999995866822
  7
SIMPLEX
  0
LINE
  5
40C
  8
CHINA
  6
CONTINUOUS
 10
8207.017181677054
 20
3838.860660992178
 30
0.0
 11
8179.017450200556
 21
3899.481857873995
 31
0.0
  0
LINE
  5
40D
  8
CHINA
  6
CONTINUOUS
 10
8179.017450200556
 20
3899.481857873995
 30
0.0
 11
8151.017718734389
 21
3838.860660988249
 31
0.0
  0
TEXT
  5
40E
  8
CHINA
  6
CONTINUOUS
 10
8169.386574887418
 20
2064.421158579354
 30
0.0
 40
49.99952048336871
  1
簽章
  7
AEH
  0
LINE
  5
40F
  8
PP
 10
8141.137949686965
 20
2163.49850660492
 30
0.0
 11
8841.131236470124
 21
2163.498506653786
 31
0.0
  0
LINE
  5
410
  8
PP
 10
8141.137949632977
 20
2791.492483935189
 30
0.0
 11
8841.131236416115
 21
2791.492483984076
 31
0.0
  0
LINE
  5
411
  8
CHINA
 10
8701.132579000086
 20
3703.483737611758
 30
0.0
 11
8841.131236350995
 21
3815.482663494405
 31
0.0
  0
LINE
  5
412
  8
CHINA
  6
CONTINUOUS
 10
8151.017718742392
 20
3726.86173510294
 30
0.0
 11
8207.017181685029
 21
3726.861735106869
 31
0.0
  0
TEXT
  5
413
  8
CHINA
  6
CONTINUOUS
 10
8173.991112345228
 20
3695.544415421763
 30
0.0
 40
39.99961638529461
  1
次數
  7
AEV
  0
TEXT
  5
414
  8
CHINA
  6
CONTINUOUS
 10
8222.915684933907
 20
3624.700068310719
 30
0.0
 40
49.99952048420379
  1
日期
  7
AEH
  0
TEXT
  5
415
  8
CHINA
  6
CONTINUOUS
 10
8392.165228604741
 20
3624.882662700184
 30
0.0
 40
49.99952048423935
  1
修改內容
  7
AEH
  0
TEXT
  5
416
  8
CHINA
  6
CONTINUOUS
 10
8709.252501132456
 20
3623.684502920843
 30
0.0
 40
49.9995204855548
  1
張數
  7
AEH
  0
LINE
  5
417
  8
C3
 10
8141.137949573584
 20
3703.483737572657
 30
0.0
 11
8841.131236356714
 21
3703.483737621537
 31
0.0
  0
TEXT
  5
418
  8
CHINA
 10
8170.118909860083
 20
3732.756203736878
 30
0.0
 40
27.99973145822969
  1
1
 41
1.00000000046762
  7
SIMPLEX
  0
LINE
  5
419
  8
CHINA
  6
CONTINUOUS
 10
8207.017181685029
 20
3726.861735106869
 30
0.0
 11
8179.017450208559
 21
3787.482931988708
 31
0.0
  0
LINE
  5
41A
  8
CHINA
  6
CONTINUOUS
 10
8179.017450208559
 20
3787.482931988708
 30
0.0
 11
8151.017718742392
 21
3726.86173510294
 31
0.0
  0
LINE
  5
41B
  8
C3
 10
8141.13794956558
 20
3815.482663457959
 30
0.0
 11
8841.13123634871
 21
3815.482663506847
 31
0.0
  0
LINE
  5
41C
  8
C3
 10
8141.137949557577
 20
3927.481589343261
 30
0.0
 11
8841.131236340707
 21
3927.481589392156
 31
0.0
  0
LINE
  5
41D
  8
PP
 10
8141.137949549573
 20
4039.480515228571
 30
0.0
 11
8841.131236332703
 21
4039.480515277443
 31
0.0
  0
LINE
  5
41E
  8
C3
 10
8361.13583971344
 20
3591.484811701536
 30
0.0
 11
8361.135839681427
 21
4039.480515242759
 31
0.0
  0
LINE
  5
41F
  8
C3
 10
8701.13257900809
 20
3591.484811726806
 30
0.0
 11
8701.132578976076
 21
4039.480515268006
 31
0.0
  0
LINE
  5
420
  8
C3
 10
8221.137182356813
 20
3591.484811692208
 30
0.0
 11
8221.1371823248
 21
4039.480515233409
 31
0.0
  0
LINE
  5
421
  8
PP
 10
8141.137949581587
 20
3591.484811687341
 30
0.0
 11
8841.131236364718
 21
3591.484811736228
 31
0.0
  0
TEXT
  5
422
  8
CHINA
  6
CONTINUOUS
 10
8166.979863976232
 20
3500.776182821975
 30
0.0
 40
49.9995204850926
  1
工程名稱
  7
AEH
  0
TEXT
  5
423
  8
CHINA
  6
CONTINUOUS
 10
8167.267382093052
 20
3099.940027002239
 30
0.0
 40
49.99952048607156
  1
圖名
  7
AEH
  0
LINE
  5
424
  8
PP
 10
8141.137949607271
 20
3191.488647811276
 30
0.0
 11
8841.131236390402
 21
3191.488647860141
 31
0.0
  0
TEXT
  5
425
  8
CHINA
 10
8147.449734400006
 20
3240.492586615005
 30
0.0
 40
44.0
  1
住宅新建工程
  7
AEH
  0
TEXT
  5
426
  8
2ND-
 62
     3
 10
8163.163
 20
2671.8343
 30
0.0
 40
69.9993
  1
徐敏斯建築師事務所
 41
0.7000000000004506
  7
RUBONFS
  0
TEXT
  5
427
  8
CHINA
 10
8239.06
 20
2969.8306
 30
0.0
 40
50.0
  1
簽證項目檢討表
  7
AEH
  0
LINE
  5
428
  8
PP
 10
8141.137949547543
 20
4039.480515228571
 30
0.0
 11
8141.137949770369
 21
919.5104369504488
 31
0.0
  0
TEXT
  5
429
  8
CHINA
 10
8147.256200000001
 20
3368.5336
 30
0.0
 40
44.0
  1
##地號
  7
AEH
  0
TEXT
  5
42A
  8
CHINA
 10
8147.316200000001
 20
3430.4336
 30
0.0
 40
44.0
  1
##區##段
  7
AEH
  0
POLYLINE
  5
42B
  8
PP
 66
     1
 10
0.0
 20
0.0
 30
0.0
  0
VERTEX
  5
C65
  8
PP
 10
818.9540907126211
 20
6391.627663901779
 30
0.0
  0
VERTEX
  5
C66
  8
PP
 10
818.9540907126211
 20
6561.33329134177
 30
0.0
  0
VERTEX
  5
C67
  8
PP
 10
988.6597181526249
 20
6561.33329134177
 30
0.0
  0
SEQEND
  5
C83
  8
PP
  0
LINE
  5
431
  8
0
 62
     2
 10
1147.205503534482
 20
6163.45918583277
 30
0.0
 11
3395.12398463627
 21
6163.459185992704
 31
0.0
  0
TEXT
  5
432
  8
0
 10
1149.872100003557
 20
6069.601065209697
 30
0.0
 40
30.0
  1
一-1.建蔽率、容積率：
  7
AEH
  0
LINE
  5
433
  8
0
 62
     3
 10
1147.205503538039
 20
6113.45918583277
 30
0.0
 11
3395.123984639827
 21
6113.459185992703
 31
0.0
  0
TEXT
  5
434
  8
0
 10
1149.8721
 20
6019.601100000001
 30
0.0
 40
30.0
  1
1.法定建蔽率、法定容積率是否符合都市計畫法或非都
  7
AEH
  0
LINE
  5
435
  8
0
 62
   252
 10
1147.205503541624
 20
6063.45918583277
 30
0.0
 11
2271.164744092491
 21
6063.459185912737
 31
0.0
  0
TEXT
  5
436
  8
0
 10
1190.061505469357
 20
5969.601065209697
 30
0.0
 40
30.0
  1
市土地使用管制規則等相關規定？
  7
AEH
  0
LINE
  5
437
  8
0
 62
   252
 10
1147.205503545195
 20
6013.45918583277
 30
0.0
 11
2271.164744096048
 21
6013.459185912737
 31
0.0
  0
LINE
  5
439
  8
0
 62
   252
 10
1147.205503548766
 20
5963.45918583277
 30
0.0
 11
2271.164744099606
 21
5963.459185912737
 31
0.0
  0
LINE
  5
43B
  8
0
 62
   252
 10
1147.205503552269
 20
5913.45918583277
 30
0.0
 11
2271.164744103163
 21
5913.459185912738
 31
0.0
  0
LINE
  5
43D
  8
0
 62
   252
 10
1147.205503555908
 20
5863.45918583277
 30
0.0
 11
2271.164744106721
 21
5863.459185912737
 31
0.0
  0
LINE
  5
43F
  8
0
 10
2271.164744081818
 20
6213.45918591891
 30
0.0
 11
2271.164744448244
 21
1063.459185912714
 31
0.0
  0
TEXT
  5
440
  8
0
 10
1149.8721
 20
5919.601100000001
 30
0.0
 40
30.0
  1
2.設計建築面積及建蔽率檢討是否符合規定？
  7
AEH
  0
TEXT
  5
442
  8
0
 10
1149.8721
 20
5869.601100000001
 30
0.0
 40
30.0
  1
3.設計容積樓地板面積及容積率檢討是否符合規定？
  7
AEH
  0
LINE
  5
443
  8
0
 62
     2
 10
3445.123984632713
 20
6213.459185998878
 30
0.0
 11
3445.123984999139
 21
1063.45918599268
 31
0.0
  0
TEXT
  5
444
  8
0
 10
1619.976402477182
 20
6165.562900000001
 30
0.0
 40
30.0
  1
檢討項目
  7
AEH
  0
TEXT
  5
445
  8
0
 10
2743.935602477183
 20
6165.562900000001
 30
0.0
 40
30.0
  1
檢討內容
  7
AEH
  0
TEXT
  5
446
  8
0
 10
3917.894883578971
 20
6165.562900159935
 30
0.0
 40
30.0
  1
檢討項目
  7
AEH
  0
TEXT
  5
447
  8
0
 10
5041.854083578972
 20
6165.562900159935
 30
0.0
 40
30.0
  1
檢討內容
  7
AEH
  0
LINE
  5
448
  8
0
 10
4569.083225183606
 20
6213.459186078844
 30
0.0
 11
4569.083225550033
 21
1063.459186072647
 31
0.0
  0
LINE
  5
449
  8
0
 62
     2
 10
5693.042465734501
 20
6213.459186158811
 30
0.0
 11
5693.042466100927
 21
1063.459186152614
 31
0.0
  0
LINE
  5
44E
  8
0
 62
   252
 10
1147.205503559466
 20
5813.459185832769
 30
0.0
 11
2271.164744110278
 21
5813.459185912736
 31
0.0
  0
LINE
  5
44F
  8
0
 62
   252
 10
1147.205503563023
 20
5763.459185832769
 30
0.0
 11
2271.164744113836
 21
5763.459185912735
 31
0.0
  0
TEXT
  5
450
  8
0
 10
1149.872100003557
 20
5669.601065209697
 30
0.0
 40
30.0
  1
一-2.建築物高度、樓層高度：
  7
AEH
  0
TEXT
  5
451
  8
0
 10
1149.8721
 20
5619.601100000001
 30
0.0
 40
30.0
  1
1.建築物高度、各層高度、樓梯淨高、屋突高度檢討
  7
AEH
  0
TEXT
  5
453
  8
0
 10
1149.8721
 20
5519.601100000001
 30
0.0
 40
30.0
  1
3.北向日照陰影檢討
  7
AEH
  0
TEXT
  5
454
  8
0
 10
1149.8721
 20
5469.601100000001
 30
0.0
 40
30.0
  1
4.突出物面積檢討
  7
AEH
  0
LINE
  5
455
  8
0
 62
   252
 10
1147.205503570083
 20
5663.459185832769
 30
0.0
 11
2271.164744120951
 21
5663.459185912735
 31
0.0
  0
LINE
  5
456
  8
0
 62
   252
 10
1147.205503566498
 20
5713.459185832769
 30
0.0
 11
3395.123984668288
 21
5713.459185992703
 31
0.0
  0
LINE
  5
457
  8
0
 62
   252
 10
1147.205503577225
 20
5563.459185832769
 30
0.0
 11
2271.164744128066
 21
5563.459185912735
 31
0.0
  0
LINE
  5
458
  8
0
 62
   252
 10
1147.205503573654
 20
5613.459185832769
 30
0.0
 11
2271.164744124509
 21
5613.459185912735
 31
0.0
  0
LINE
  5
459
  8
0
 62
   252
 10
1147.205503584367
 20
5463.459185832769
 30
0.0
 11
2271.164744135181
 21
5463.459185912735
 31
0.0
  0
LINE
  5
45A
  8
0
 62
   252
 10
1147.205503580728
 20
5513.459185832769
 30
0.0
 11
2271.164744131624
 21
5513.459185912736
 31
0.0
  0
LINE
  5
45B
  8
0
 62
   252
 10
1147.205503587925
 20
5413.459185832768
 30
0.0
 11
2271.164744138739
 21
5413.459185912734
 31
0.0
  0
LINE
  5
45C
  8
0
 62
   252
 10
1147.205503591482
 20
5363.459185832767
 30
0.0
 11
2271.164744142296
 21
5363.459185912733
 31
0.0
  0
TEXT
  5
45D
  8
0
 10
1149.8721
 20
5569.601100000001
 30
0.0
 40
30.0
  1
2.道路3.6：1日照陰影檢討圖
  7
AEH
  0
TEXT
  5
45E
  8
0
 10
1149.872100003557
 20
5269.601100000001
 30
0.0
 40
30.0
  1
一-3.雨遮(含入口雨遮)、遮陽板、陽台、欄杆、花台：
  7
AEH
  0
TEXT
  5
45F
  8
0
 10
1149.8721
 20
5219.601100000001
 30
0.0
 40
30.0
  1
1.雨遮、遮陽板、陽台、花台檢討
  7
AEH
  0
TEXT
  5
460
  8
0
 10
1149.8721
 20
5019.601100000001
 30
0.0
 40
30.0
  1
3.建築物使用用途為A-1、A-2、B-2、D-2、D-3
  7
AEH
  0
LINE
  5
462
  8
0
 62
   252
 10
1147.205503598651
 20
5263.459185832767
 30
0.0
 11
2271.164744149411
 21
5263.459185912733
 31
0.0
  0
LINE
  5
463
  8
0
 62
   252
 10
1147.205503595067
 20
5313.459185832767
 30
0.0
 11
3395.123984696748
 21
5313.4591859927
 31
0.0
  0
LINE
  5
464
  8
0
 62
   252
 10
1147.205503605793
 20
5163.459185832767
 30
0.0
 11
2271.164744156526
 21
5163.459185912733
 31
0.0
  0
LINE
  5
465
  8
0
 62
   252
 10
1147.205503602223
 20
5213.459185832767
 30
0.0
 11
2271.164744152969
 21
5213.459185912733
 31
0.0
  0
LINE
  5
466
  8
0
 62
   252
 10
1147.205503612936
 20
5063.459185832767
 30
0.0
 11
2271.164744163641
 21
5063.459185912733
 31
0.0
  0
LINE
  5
467
  8
0
 62
   252
 10
1147.205503609296
 20
5113.459185832767
 30
0.0
 11
2271.164744160084
 21
5113.459185912733
 31
0.0
  0
LINE
  5
468
  8
0
 62
   252
 10
1147.205503616493
 20
5013.459185832766
 30
0.0
 11
2271.164744167198
 21
5013.459185912732
 31
0.0
  0
LINE
  5
469
  8
0
 62
   252
 10
1147.20550362005
 20
4963.459185832765
 30
0.0
 11
2271.164744170756
 21
4963.459185912731
 31
0.0
  0
TEXT
  5
46A
  8
0
 10
1149.8721
 20
5169.601100000001
 30
0.0
 40
30.0
  1
2.設置於露臺、陽臺、室外走廊、室外樓梯、平屋頂
  7
AEH
  0
TEXT
  5
46B
  8
0
 10
1189.938227176856
 20
5119.601100000001
 30
0.0
 40
30.0
  1
及室內天井部分等之欄桿扶手高度欄桿扶手高度，不
  7
AEH
  0
TEXT
  5
46C
  8
0
 10
1189.938227176856
 20
5069.601100000001
 30
0.0
 40
30.0
  1
得小於1.1公尺，10層以上者，不得小於1.2公尺
  7
AEH
  0
TEXT
  5
46D
  8
0
 10
1191.515635461894
 20
4969.601100000001
 30
0.0
 40
30.0
  1
、F-3、G-2、H-2組者，前項欄桿不得設有可供
  7
AEH
  0
TEXT
  5
46E
  8
0
 10
1191.515635461894
 20
4919.601100000001
 30
0.0
 40
30.0
  1
直徑10公分物體穿越之鏤空或可供攀爬之水平橫條
  7
AEH
  0
TEXT
  5
46F
  8
0
 10
1149.872100003557
 20
4869.601100000001
 30
0.0
 40
30.0
  1
二.停車空間、裝卸位：
  7
AEH
  0
TEXT
  5
470
  8
0
 10
1149.8721
 20
4819.601100000001
 30
0.0
 40
30.0
  1
1.汽車、機車、及裝卸位數量檢討
  7
AEH
  0
LINE
  5
472
  8
0
 62
     3
 10
1147.20550362711
 20
4863.459185832765
 30
0.0
 11
3395.123984728765
 21
4863.459185992698
 31
0.0
  0
LINE
  5
473
  8
0
 62
     3
 10
1147.205503623526
 20
4913.459185832765
 30
0.0
 11
3395.123984725209
 21
4913.459185992698
 31
0.0
  0
LINE
  5
474
  8
0
 62
   252
 10
1147.205503634252
 20
4763.459185832765
 30
0.0
 11
2271.164744184986
 21
4763.459185912731
 31
0.0
  0
LINE
  5
475
  8
0
 62
   252
 10
1147.205503630682
 20
4813.459185832765
 30
0.0
 11
2271.164744181429
 21
4813.459185912731
 31
0.0
  0
LINE
  5
476
  8
0
 62
   252
 10
1147.205503641395
 20
4663.459185832765
 30
0.0
 11
2271.164744192101
 21
4663.459185912731
 31
0.0
  0
LINE
  5
477
  8
0
 62
   252
 10
1147.205503637755
 20
4713.459185832765
 30
0.0
 11
2271.164744188544
 21
4713.459185912731
 31
0.0
  0
LINE
  5
478
  8
0
 62
   252
 10
1147.205503644952
 20
4613.459185832764
 30
0.0
 11
2271.164744195659
 21
4613.45918591273
 31
0.0
  0
LINE
  5
479
  8
0
 62
   252
 10
1147.205503648509
 20
4563.459185832763
 30
0.0
 11
2271.164744199217
 21
4563.459185912729
 31
0.0
  0
TEXT
  5
47A
  8
0
 10
1149.8721
 20
4769.601100000001
 30
0.0
 40
30.0
  1
2.車道寬度及迴轉半徑、單車道車行方向檢討
  7
AEH
  0
LINE
  5
47F
  8
0
 62
   252
 10
1147.205503652067
 20
4513.459185832762
 30
0.0
 11
2271.164744202774
 21
4513.459185912729
 31
0.0
  0
TEXT
  5
480
  8
0
 10
1149.8721
 20
6119.601100000001
 30
0.0
 40
30.0
  1
一.建蔽率、容積率～：
  7
AEH
  0
TEXT
  5
481
  8
0
 10
1149.8721
 20
4719.601100000001
 30
0.0
 40
30.0
  1
3.停車位角度超過60度者，其停車位前方應留設
  7
AEH
  0
LINE
  5
482
  8
0
 62
     3
 10
1147.205503655624
 20
4463.459185832761
 30
0.0
 11
3395.123984757227
 21
4463.459185992694
 31
0.0
  0
TEXT
  5
483
  8
0
 10
1191.5156
 20
4669.601100000001
 30
0.0
 40
30.0
  1
深6m*5m空間
  7
AEH
  0
LINE
  5
488
  8
0
 62
     3
 10
1147.205503659182
 20
4413.45918583276
 30
0.0
 11
3395.123984760784
 21
4413.459185992693
 31
0.0
  0
LINE
  5
489
  8
0
 62
   252
 10
1147.205503666269
 20
4313.45918583276
 30
0.0
 11
2271.164744217004
 21
4313.459185912727
 31
0.0
  0
LINE
  5
48A
  8
0
 62
   252
 10
1147.205503662698
 20
4363.45918583276
 30
0.0
 11
2271.164744213447
 21
4363.459185912727
 31
0.0
  0
LINE
  5
48B
  8
0
 62
   252
 10
1147.205503673411
 20
4213.45918583276
 30
0.0
 11
2271.164744224119
 21
4213.459185912727
 31
0.0
  0
LINE
  5
48C
  8
0
 62
   252
 10
1147.205503669772
 20
4263.45918583276
 30
0.0
 11
2271.164744220562
 21
4263.459185912727
 31
0.0
  0
LINE
  5
48D
  8
0
 62
   252
 10
1147.205503676969
 20
4163.459185832759
 30
0.0
 11
2271.164744227677
 21
4163.459185912726
 31
0.0
  0
LINE
  5
48E
  8
0
 62
   252
 10
1147.205503680526
 20
4113.459185832759
 30
0.0
 11
2271.164744231235
 21
4113.459185912725
 31
0.0
  0
LINE
  5
48F
  8
0
 62
   252
 10
1147.205503684084
 20
4063.459185832758
 30
0.0
 11
2271.164744234792
 21
4063.459185912724
 31
0.0
  0
LINE
  5
490
  8
0
 62
     3
 10
1147.205503687641
 20
4013.459185832757
 30
0.0
 11
3395.123984789246
 21
4013.45918599269
 31
0.0
  0
TEXT
  5
491
  8
0
 10
1149.8721
 20
4419.601100000001
 30
0.0
 40
30.0
  1
三.騎樓、無遮簷人行道：
  7
AEH
  0
TEXT
  5
492
  8
0
 10
1149.8721
 20
4369.601100000001
 30
0.0
 40
30.0
  1
1.騎樓、無遮簷人行道等留設(順平、坡度、寬度)
  7
AEH
  0
TEXT
  5
493
  8
0
 10
1149.8721
 20
4319.601100000001
 30
0.0
 40
30.0
  1
2.騎樓、無遮簷人行道淨高度
  7
AEH
  0
LINE
  5
496
  8
0
 62
     3
 10
1147.205503691198
 20
3963.459185832756
 30
0.0
 11
3395.123984792802
 21
3963.45918599269
 31
0.0
  0
TEXT
  5
497
  8
0
 10
1149.8721
 20
3919.6011
 30
0.0
 40
30.0
  1
四-1.出入口、走廊、坡道：
  7
AEH
  0
TEXT
  5
498
  8
0
 10
1149.8721
 20
3869.6011
 30
0.0
 40
30.0
  1
1.直通樓梯於避難層開向屋外出入口(方向、數量、寬
  7
AEH
  0
TEXT
  5
499
  8
0
 10
1189.9383
 20
3819.6011
 30
0.0
 40
30.0
  1
度及高度)檢討
  7
AEH
  0
TEXT
  5
49A
  8
0
 10
1149.8721
 20
3769.6011
 30
0.0
 40
30.0
  1
2.建築物於避難層開向屋外出入口(方向、數量、寬度
  7
AEH
  0
TEXT
  5
49B
  8
0
 10
1149.8721
 20
3669.6011
 30
0.0
 40
30.0
  1
3.走廊寬度、坡道檢討
  7
AEH
  0
TEXT
  5
49C
  8
0
 10
1149.8721
 20
3519.6011
 30
0.0
 40
30.0
  1
四-2.直通樓梯(含安全梯)、步行距離：
  7
AEH
  0
TEXT
  5
49D
  8
0
 10
1149.8721
 20
3469.6011
 30
0.0
 40
30.0
  1
1.直通樓梯數量
  7
AEH
  0
TEXT
  5
49E
  8
0
 10
1149.8721
 20
3369.6011
 30
0.0
 40
30.0
  1
3.直通樓梯寬度、級深、級高、迴轉半徑
  7
AEH
  0
TEXT
  5
49F
  8
0
 10
1149.8721
 20
3319.6011
 30
0.0
 40
30.0
  1
4.步行距離、重複步行距離檢討
  7
AEH
  0
LINE
  5
4A0
  8
0
 62
   252
 10
1147.20550372305
 20
3513.459185832755
 30
0.0
 11
2271.164744273925
 21
3513.459185912722
 31
0.0
  0
LINE
  5
4A1
  8
0
 62
   252
 10
1147.205503719465
 20
3563.459185832755
 30
0.0
 11
3395.123984821263
 21
3563.459185992689
 31
0.0
  0
LINE
  5
4A2
  8
0
 62
   252
 10
1147.205503730192
 20
3413.459185832755
 30
0.0
 11
2271.16474428104
 21
3413.459185912722
 31
0.0
  0
LINE
  5
4A3
  8
0
 62
   252
 10
1147.205503726621
 20
3463.459185832755
 30
0.0
 11
2271.164744277482
 21
3463.459185912722
 31
0.0
  0
LINE
  5
4A4
  8
0
 62
   252
 10
1147.205503737334
 20
3313.459185832755
 30
0.0
 11
2271.164744288155
 21
3313.459185912722
 31
0.0
  0
LINE
  5
4A5
  8
0
 62
   252
 10
1147.205503733695
 20
3363.459185832755
 30
0.0
 11
2271.164744284598
 21
3363.459185912722
 31
0.0
  0
LINE
  5
4A6
  8
0
 62
   252
 10
1147.205503740892
 20
3263.459185832754
 30
0.0
 11
2271.164744291713
 21
3263.459185912721
 31
0.0
  0
LINE
  5
4A7
  8
0
 62
   252
 10
1147.205503744449
 20
3213.459185832753
 30
0.0
 11
2271.16474429527
 21
3213.45918591272
 31
0.0
  0
TEXT
  5
4A8
  8
0
 10
1149.8721
 20
3419.6011
 30
0.0
 40
30.0
  1
2.直通樓梯構造(安全梯、戶外安全梯或特別安全梯檢討)
  7
AEH
  0
TEXT
  5
4A9
  8
0
 10
1149.8721
 20
3119.6011
 30
0.0
 40
30.0
  1
四-3.防火區劃、防火構造、防火間隔：
  7
AEH
  0
TEXT
  5
4AA
  8
0
 10
1149.8721
 20
3069.6011
 30
0.0
 40
30.0
  1
1.檢討是否為防火構造？
  7
AEH
  0
TEXT
  5
4AB
  8
0
 10
1149.872099992885
 20
2969.6011
 30
0.0
 40
30.0
  1
3.防火區劃檢討
  7
AEH
  0
LINE
  5
4AC
  8
0
 62
   252
 10
1147.205503751618
 20
3113.459185832753
 30
0.0
 11
2271.164744302385
 21
3113.45918591272
 31
0.0
  0
LINE
  5
4AD
  8
0
 62
   252
 10
1147.205503748034
 20
3163.459185832753
 30
0.0
 11
3395.123984849723
 21
3163.459185992687
 31
0.0
  0
LINE
  5
4AE
  8
0
 62
   252
 10
1147.20550375876
 20
3013.459185832753
 30
0.0
 11
2271.164744309501
 21
3013.45918591272
 31
0.0
  0
LINE
  5
4AF
  8
0
 62
   252
 10
1147.20550375519
 20
3063.459185832753
 30
0.0
 11
2271.164744305943
 21
3063.45918591272
 31
0.0
  0
LINE
  5
4B0
  8
0
 62
   252
 10
1147.205503765903
 20
2913.459185832753
 30
0.0
 11
2271.164744316615
 21
2913.45918591272
 31
0.0
  0
LINE
  5
4B1
  8
0
 62
   252
 10
1147.205503762263
 20
2963.459185832753
 30
0.0
 11
2271.164744313058
 21
2963.45918591272
 31
0.0
  0
LINE
  5
4B2
  8
0
 62
   252
 10
1147.20550376946
 20
2863.459185832752
 30
0.0
 11
2271.164744320173
 21
2863.459185912719
 31
0.0
  0
LINE
  5
4B3
  8
0
 62
   252
 10
1147.205503773017
 20
2813.459185832751
 30
0.0
 11
2271.164744323731
 21
2813.459185912718
 31
0.0
  0
TEXT
  5
4B4
  8
0
 10
1149.8721
 20
3019.6011
 30
0.0
 40
30.0
  1
2.防火構造之主要構造是否符合規定？
  7
AEH
  0
LINE
  5
4B9
  8
0
 62
   252
 10
1147.205503776493
 20
2763.459185832751
 30
0.0
 11
3395.123984878184
 21
2763.459185992685
 31
0.0
  0
LINE
  5
4BA
  8
0
 62
   252
 10
1147.205503694591
 20
3913.459185832757
 30
0.0
 11
2271.164744245465
 21
3913.459185912724
 31
0.0
  0
LINE
  5
4BB
  8
0
 62
   252
 10
1147.205503705236
 20
3763.459185832757
 30
0.0
 11
2271.164744256138
 21
3763.459185912724
 31
0.0
  0
LINE
  5
4BC
  8
0
 62
   252
 10
1147.205503708875
 20
3713.459185832757
 30
0.0
 11
2271.164744259695
 21
3713.459185912724
 31
0.0
  0
LINE
  5
4BD
  8
0
 62
   252
 10
1147.20550371599
 20
3613.459185832755
 30
0.0
 11
2271.16474426681
 21
3613.459185912722
 31
0.0
  0
LINE
  5
4BE
  8
0
 62
   252
 10
1147.205503698162
 20
3863.459185832757
 30
0.0
 11
2271.164744249022
 21
3863.459185912724
 31
0.0
  0
LINE
  5
4BF
  8
0
 62
   252
 10
1147.205503701733
 20
3813.459185832757
 30
0.0
 11
2271.16474425258
 21
3813.459185912724
 31
0.0
  0
LINE
  5
4C0
  8
0
 62
   252
 10
1147.205503712433
 20
3663.459185832756
 30
0.0
 11
2271.164744263252
 21
3663.459185912723
 31
0.0
  0
TEXT
  5
4C1
  8
0
 10
1149.8721
 20
3969.6011
 30
0.0
 40
30.0
  1
四.出入口、走廊～：
  7
AEH
  0
TEXT
  5
4C2
  8
0
 10
1149.8721
 20
2719.6011
 30
0.0
 40
30.0
  1
四-4.昇降機、緊急用昇降機、緊急進口：
  7
AEH
  0
TEXT
  5
4C3
  8
0
 10
1149.8721
 20
2669.6011
 30
0.0
 40
30.0
  1
1.樓層數>=6層，應設置昇降機
  7
AEH
  0
LINE
  5
4C5
  8
0
 62
   252
 10
1147.205503780077
 20
2713.459185832752
 30
0.0
 11
2271.164744330846
 21
2713.459185912719
 31
0.0
  0
LINE
  5
4C6
  8
0
 62
   252
 10
1147.205503787219
 20
2613.459185832752
 30
0.0
 11
2271.164744337961
 21
2613.459185912719
 31
0.0
  0
LINE
  5
4C7
  8
0
 62
   252
 10
1147.205503783649
 20
2663.459185832752
 30
0.0
 11
2271.164744334403
 21
2663.459185912719
 31
0.0
  0
LINE
  5
4C8
  8
0
 62
   252
 10
1147.205503794362
 20
2513.459185832752
 30
0.0
 11
2271.164744345076
 21
2513.459185912719
 31
0.0
  0
LINE
  5
4C9
  8
0
 62
   252
 10
1147.205503790722
 20
2563.459185832752
 30
0.0
 11
2271.164744341518
 21
2563.459185912719
 31
0.0
  0
LINE
  5
4CA
  8
0
 62
   252
 10
1147.205503797919
 20
2463.459185832751
 30
0.0
 11
2271.164744348633
 21
2463.459185912718
 31
0.0
  0
LINE
  5
4CB
  8
0
 62
   252
 10
1147.205503801476
 20
2413.45918583275
 30
0.0
 11
2271.164744352191
 21
2413.459185912717
 31
0.0
  0
TEXT
  5
4CC
  8
0
 10
1149.8721
 20
2619.6011
 30
0.0
 40
30.0
  1
2.樓層數>=10層，應設置緊急昇降機(但符合技
  7
AEH
  0
TEXT
  5
4CD
  8
0
 10
1189.9382
 20
2569.6011
 30
0.0
 40
30.0
  1
則106條第2款除外)
  7
AEH
  0
LINE
  5
4D1
  8
0
 62
     3
 10
1147.205503804952
 20
2363.45918583275
 30
0.0
 11
3395.123984906642
 21
2363.459185992684
 31
0.0
  0
TEXT
  5
4D2
  8
0
 10
1189.9383
 20
3719.6011
 30
0.0
 40
30.0
  1
及高度)檢討
  7
AEH
  0
TEXT
  5
4D3
  8
0
 10
1149.8721
 20
2919.6011
 30
0.0
 40
30.0
  1
4.防火間隔檢討
  7
AEH
  0
TEXT
  5
4D4
  8
0
 10
1149.8721
 20
2519.6011
 30
0.0
 40
30.0
  1
3.緊急進口檢討
  7
AEH
  0
LINE
  5
4D6
  8
0
 62
     3
 10
1147.205503808536
 20
2313.459185832749
 30
0.0
 11
3395.123984910201
 21
2313.459185992683
 31
0.0
  0
LINE
  5
4D7
  8
0
 62
   252
 10
1147.205503815678
 20
2213.459185832749
 30
0.0
 11
2271.164744366421
 21
2213.459185912716
 31
0.0
  0
LINE
  5
4D8
  8
0
 62
   252
 10
1147.205503812108
 20
2263.459185832749
 30
0.0
 11
2271.164744362863
 21
2263.459185912716
 31
0.0
  0
LINE
  5
4D9
  8
0
 62
   252
 10
1147.205503822821
 20
2113.459185832749
 30
0.0
 11
2271.164744373536
 21
2113.459185912716
 31
0.0
  0
LINE
  5
4DA
  8
0
 62
   252
 10
1147.205503819181
 20
2163.459185832749
 30
0.0
 11
2271.164744369979
 21
2163.459185912716
 31
0.0
  0
LINE
  5
4DB
  8
0
 62
   252
 10
1147.205503826378
 20
2063.459185832749
 30
0.0
 11
2271.164744377093
 21
2063.459185912715
 31
0.0
  0
LINE
  5
4DC
  8
0
 62
   252
 10
1147.205503829935
 20
2013.459185832748
 30
0.0
 11
2271.164744380651
 21
2013.459185912714
 31
0.0
  0
LINE
  5
4DD
  8
0
 62
   252
 10
1147.205503833493
 20
1963.459185832747
 30
0.0
 11
2271.164744384208
 21
1963.459185912714
 31
0.0
  0
LINE
  5
4DE
  8
0
 62
     3
 10
1147.20550383705
 20
1913.459185832746
 30
0.0
 11
3395.123984938661
 21
1913.45918599268
 31
0.0
  0
TEXT
  5
4DF
  8
0
 10
1149.8721
 20
2319.6011
 30
0.0
 40
30.0
  1
五.通風、採光及綠建築基準：
  7
AEH
  0
TEXT
  5
4E0
  8
0
 10
1149.8721
 20
2269.6011
 30
0.0
 40
30.0
  1
1.有效採光面積檢討
  7
AEH
  0
TEXT
  5
4E1
  8
0
 10
1149.8721
 20
2219.6011
 30
0.0
 40
30.0
  1
2.居室通風面積檢討
  7
AEH
  0
TEXT
  5
4E2
  8
0
 10
1149.8721
 20
2169.6011
 30
0.0
 40
30.0
  1
3.陽台距地界距離檢討
  7
AEH
  0
TEXT
  5
4E4
  8
0
 10
1149.8721
 20
2069.6011
 30
0.0
 40
30.0
  1
5.建築物節約能源檢討
  7
AEH
  0
TEXT
  5
4E5
  8
0
 10
1149.8721
 20
2119.6011
 30
0.0
 40
30.0
  1
4.H-2、D-3、F-3類組建築物窗台高度檢討
  7
AEH
  0
LINE
  5
4E6
  8
0
 62
     3
 10
1147.205503840608
 20
1863.459185832745
 30
0.0
 11
3395.123984942219
 21
1863.459185992679
 31
0.0
  0
TEXT
  5
4E7
  8
0
 10
1149.8721
 20
1869.6011
 30
0.0
 40
30.0
  1
六.防空避難設備、屋頂避難平台：
  7
AEH
  0
LINE
  5
4E8
  8
0
 62
   252
 10
1147.205503854839
 20
1663.459185832745
 30
0.0
 11
2271.164744405554
 21
1663.459185912712
 31
0.0
  0
LINE
  5
4E9
  8
0
 62
   252
 10
1147.205503847696
 20
1763.459185832745
 30
0.0
 11
2271.164744398439
 21
1763.459185912712
 31
0.0
  0
LINE
  5
4EA
  8
0
 62
   252
 10
1147.205503865511
 20
1513.459185832742
 30
0.0
 11
2271.164744416226
 21
1513.459185912709
 31
0.0
  0
LINE
  5
4EB
  8
0
 62
   252
 10
1147.205503861953
 20
1563.459185832743
 30
0.0
 11
2271.164744412669
 21
1563.45918591271
 31
0.0
  0
LINE
  5
4EC
  8
0
 62
   252
 10
1147.205503858396
 20
1613.459185832744
 30
0.0
 11
2271.164744409111
 21
1613.459185912711
 31
0.0
  0
LINE
  5
4ED
  8
0
 62
   252
 10
1147.205503844125
 20
1813.459185832745
 30
0.0
 11
2271.164744394881
 21
1813.459185912712
 31
0.0
  0
LINE
  5
4EE
  8
0
 62
   252
 10
1147.205503851199
 20
1713.459185832745
 30
0.0
 11
2271.164744401996
 21
1713.459185912712
 31
0.0
  0
LINE
  5
4EF
  8
0
 62
   252
 10
1147.205503869068
 20
1463.459185832742
 30
0.0
 11
3395.123984970678
 21
1463.459185992675
 31
0.0
  0
TEXT
  5
4F0
  8
0
 10
1149.8721
 20
1819.6011
 30
0.0
 40
30.0
  1
1.防空避難設備適用地區檢討
  7
AEH
  0
TEXT
  5
4F1
  8
0
 10
1149.8721
 20
1769.6011
 30
0.0
 40
30.0
  1
2.防空避難設備附建面積檢討
  7
AEH
  0
TEXT
  5
4F2
  8
0
 10
1149.8721
 20
1719.6011
 30
0.0
 40
30.0
  1
3.防空避難設備構造(淨高、進出口、門窗構造)檢討
  7
AEH
  0
TEXT
  5
4F3
  8
0
 10
1149.872100017787
 20
1419.601099999997
 30
0.0
 40
30.0
  1
4.屋頂避難平台檢討（建築物在5層以上之樓層供
  7
AEH
  0
TEXT
  5
4F4
  8
0
 10
1189.938200017787
 20
1369.601099999997
 30
0.0
 40
30.0
  1
A-1、B-1、B-2類使用者)：
  7
AEH
  0
TEXT
  5
4F5
  8
0
 10
1149.872100017787
 20
1319.601099999997
 30
0.0
 40
30.0
  1
4-1.屋頂避難平臺應設置於5層以上之樓層，其面
  7
AEH
  0
TEXT
  5
4F6
  8
0
 10
1189.938200017787
 20
1269.601099999997
 30
0.0
 40
30.0
  1
積合計不得小於該棟建築物五層以上最大樓
  7
AEH
  0
TEXT
  5
4F7
  8
0
 10
1189.938200017787
 20
1219.601099999997
 30
0.0
 40
30.0
  1
地板面積1/2
  7
AEH
  0
LINE
  5
4F8
  8
0
 62
   252
 10
1147.205503872626
 20
1413.459185832742
 30
0.0
 11
2271.164744423341
 21
1413.459185912709
 31
0.0
  0
LINE
  5
4F9
  8
0
 62
   252
 10
1147.205503876184
 20
1363.459185832742
 30
0.0
 11
2271.164744426899
 21
1363.459185912709
 31
0.0
  0
LINE
  5
4FA
  8
0
 62
   252
 10
1147.205503879741
 20
1313.459185832742
 30
0.0
 11
2271.164744430457
 21
1313.459185912709
 31
0.0
  0
LINE
  5
4FB
  8
0
 62
   252
 10
1147.205503883298
 20
1263.459185832743
 30
0.0
 11
2271.164744434013
 21
1263.459185912709
 31
0.0
  0
LINE
  5
4FC
  8
0
 62
   252
 10
1147.205503886856
 20
1213.459185832744
 30
0.0
 11
2271.164744437572
 21
1213.45918591271
 31
0.0
  0
LINE
  5
4FD
  8
0
 62
   252
 10
1147.205503890414
 20
1163.459185832744
 30
0.0
 11
2271.164744441129
 21
1163.459185912711
 31
0.0
  0
LINE
  5
4FE
  8
0
 62
   252
 10
1147.20550389397
 20
1113.459185832745
 30
0.0
 11
2271.164744444685
 21
1113.459185912712
 31
0.0
  0
LINE
  5
4FF
  8
0
 62
     2
 10
1147.205503897527
 20
1063.459185832746
 30
0.0
 11
3395.123984999138
 21
1063.45918599268
 31
0.0
  0
TEXT
  5
501
  8
0
 10
1149.8721
 20
1169.6011
 30
0.0
 40
30.0
  1
4-2.屋頂避難平臺任一邊之邊長不得小於6公尺
  7
AEH
  0
TEXT
  5
505
  8
0
 10
3447.7906
 20
6069.601100000001
 30
0.0
 40
30.0
  1
1.無障礙通路
  7
AEH
  0
TEXT
  5
507
  8
0
 10
3447.790600017825
 20
5169.601100000001
 30
0.0
 40
30.0
  1
2.無障礙樓梯檢討
  7
AEH
  0
TEXT
  5
508
  8
0
 10
3447.790600017679
 20
4619.601100000001
 30
0.0
 40
30.0
  1
3.無障礙昇降設備檢討
  7
AEH
  0
TEXT
  5
519
  8
0
 10
3447.7906
 20
6119.601100000001
 30
0.0
 40
30.0
  1
七.無障礙設施：
  7
AEH
  0
LINE
  5
53F
  8
0
 62
   252
 10
3445.12398465054
 20
5963.459185992704
 30
0.0
 11
4569.083225201381
 21
5963.45918607267
 31
0.0
  0
LINE
  5
540
  8
0
 62
   252
 10
3445.12398464697
 20
6013.459185992704
 30
0.0
 11
4569.083225197823
 21
6013.45918607267
 31
0.0
  0
LINE
  5
541
  8
0
 62
   252
 10
3445.123984657683
 20
5863.459185992704
 30
0.0
 11
4569.083225208497
 21
5863.45918607267
 31
0.0
  0
LINE
  5
543
  8
0
 62
   252
 10
3445.123984654043
 20
5913.459185992704
 30
0.0
 11
4569.083225204939
 21
5913.459186072671
 31
0.0
  0
LINE
  5
545
  8
0
 62
   252
 10
3445.123984675429
 20
5613.459185992702
 30
0.0
 11
4569.083225226284
 21
5613.459186072669
 31
0.0
  0
LINE
  5
547
  8
0
 62
   252
 10
3445.123984696841
 20
5313.4591859927
 30
0.0
 11
4569.083225247642
 21
5313.459186072667
 31
0.0
  0
LINE
  5
548
  8
0
 62
   252
 10
3445.123984757399
 20
4463.459185992695
 30
0.0
 11
4569.083225308121
 21
4463.459186072661
 31
0.0
  0
LINE
  5
54A
  8
0
 62
   252
 10
3445.123984668273
 20
5713.459185992702
 30
0.0
 11
4569.083225219182
 21
5713.45918607267
 31
0.0
  0
LINE
  5
54D
  8
0
 62
   252
 10
3445.123984671858
 20
5663.459185992702
 30
0.0
 11
4569.083225222726
 21
5663.459186072669
 31
0.0
  0
LINE
  5
54F
  8
0
 62
   252
 10
3445.123984664798
 20
5763.459185992702
 30
0.0
 11
4569.083225215611
 21
5763.459186072669
 31
0.0
  0
LINE
  5
552
  8
0
 62
   252
 10
3445.123984700426
 20
5263.4591859927
 30
0.0
 11
4569.0832252512
 21
5263.459186072667
 31
0.0
  0
LINE
  5
556
  8
0
 62
   252
 10
3445.123984661241
 20
5813.459185992703
 30
0.0
 11
4569.083225212053
 21
5813.45918607267
 31
0.0
  0
LINE
  5
55B
  8
0
 62
   252
 10
3445.123984864038
 20
2963.459185992687
 30
0.0
 11
4569.083225414846
 21
2963.459186072654
 31
0.0
  0
LINE
  5
55C
  8
0
 62
   252
 10
3445.123984803507
 20
3813.45918599269
 30
0.0
 11
4569.083225354368
 21
3813.459186072657
 31
0.0
  0
LINE
  5
55D
  8
0
 62
   252
 10
3445.123984860536
 20
3013.459185992687
 30
0.0
 11
4569.083225411288
 21
3013.459186072654
 31
0.0
  0
LINE
  5
55F
  8
0
 62
   252
 10
3445.123984817765
 20
3613.459185992689
 30
0.0
 11
4569.083225368599
 21
3613.459186072655
 31
0.0
  0
LINE
  5
56B
  8
0
 62
   252
 10
3445.123984643399
 20
6063.459185992704
 30
0.0
 11
4569.083225194266
 21
6063.45918607267
 31
0.0
  0
LINE
  5
56D
  8
0
 62
     3
 10
3445.123984639814
 20
6113.459185992704
 30
0.0
 11
5693.042465741602
 21
6113.459186152637
 31
0.0
  0
LINE
  5
572
  8
0
 62
   252
 10
3445.123984789416
 20
4013.45918599269
 30
0.0
 11
5693.042465891032
 21
4013.459186152624
 31
0.0
  0
LINE
  5
574
  8
0
 62
   252
 10
3445.123984775186
 20
4213.459185992694
 30
0.0
 11
4569.083225325908
 21
4213.45918607266
 31
0.0
  0
LINE
  5
57E
  8
0
 62
   252
 10
3445.123984728885
 20
4863.459185992699
 30
0.0
 11
4569.08322527966
 21
4863.459186072665
 31
0.0
  0
LINE
  5
58B
  8
0
 62
   252
 10
3445.123984760957
 20
4413.459185992694
 30
0.0
 11
4569.083225311677
 21
4413.45918607266
 31
0.0
  0
LINE
  5
58C
  8
0
 62
   252
 10
3445.123984896137
 20
2513.459185992685
 30
0.0
 11
4569.083225446864
 21
2513.459186072652
 31
0.0
  0
LINE
  5
58D
  8
0
 62
   252
 10
3445.123984892497
 20
2563.459185992685
 30
0.0
 11
4569.083225443306
 21
2563.459186072652
 31
0.0
  0
LINE
  5
5A9
  8
0
 62
     2
 10
3445.123984999302
 20
1063.45918599268
 30
0.0
 11
5693.042466100927
 21
1063.459186152614
 31
0.0
  0
TEXT
  5
5AB
  8
0
 10
3447.790600138225
 20
3969.601099999988
 30
0.0
 40
30.0
  1
4.無障礙廁所盥洗室檢討
  7
AEH
  0
TEXT
  5
5AC
  8
0
 10
3447.790600216286
 20
2819.601099999982
 30
0.0
 40
30.0
  1
5.無障礙停車空間檢討
  7
AEH
  0
LINE
  5
5D9
  8
0
 62
     2
 10
3445.123984636284
 20
6163.459185992703
 30
0.0
 11
5693.042465738072
 21
6163.459186152637
 31
0.0
  0
LINE
  5
5DA
  8
0
 62
     2
 10
3395.123984632713
 20
6213.45918599532
 30
0.0
 11
3395.123984999139
 21
1063.459185989123
 31
0.0
  0
LINE
  5
5DB
  8
0
 62
     2
 10
1147.205503530914
 20
6213.459185835386
 30
0.0
 11
1147.205503897341
 21
1063.459185829189
 31
0.0
  0
LINE
  5
5DC
  8
0
 62
     2
 10
3445.123984632726
 20
6213.459185995319
 30
0.0
 11
5693.042465734514
 21
6213.459186155253
 31
0.0
  0
LINE
  5
5DD
  8
0
 62
     2
 10
1147.205503530924
 20
6213.459185835386
 30
0.0
 11
3395.123984632713
 21
6213.45918599532
 31
0.0
  0
TEXT
  5
5DE
  8
0
 10
6215.813364680773
 20
6165.562900319867
 30
0.0
 40
30.0
  1
檢討項目
  7
AEH
  0
TEXT
  5
5DF
  8
0
 10
7339.772564680774
 20
6165.562900319867
 30
0.0
 40
30.0
  1
檢討內容
  7
AEH
  0
LINE
  5
646
  8
0
 62
     2
 10
5743.042466101104
 20
1063.459186152613
 30
0.0
 11
7990.96094720273
 21
1063.459186312547
 31
0.0
  0
LINE
  5
66F
  8
0
 10
6867.001706285409
 20
6213.459186238777
 30
0.0
 11
6867.001706651835
 21
1063.45918623258
 31
0.0
  0
LINE
  5
670
  8
0
 62
     2
 10
5743.042465734515
 20
6213.459186158811
 30
0.0
 11
5743.042466100941
 21
1063.459186152613
 31
0.0
  0
LINE
  5
671
  8
0
 62
     2
 10
7990.960946836303
 20
6213.459186318744
 30
0.0
 11
7990.96094720273
 21
1063.459186312547
 31
0.0
  0
LINE
  5
672
  8
0
 62
     2
 10
5743.042465738086
 20
6163.459186152636
 30
0.0
 11
7990.960946839874
 21
6163.45918631257
 31
0.0
  0
LINE
  5
673
  8
0
 62
     2
 10
5743.042465734528
 20
6213.459186155252
 30
0.0
 11
7990.960946836316
 21
6213.459186315185
 31
0.0
  0
TEXT
  5
8D2
  8
0
 10
1149.8721
 20
2019.6011
 30
0.0
 40
30.0
  1
6.綠建材檢討(供公眾使用建築物)
  7
AEH
  0
LINE
  5
9B8
  8
0
 62
   252
 10
5743.042465805718
 20
5213.45918615263
 30
0.0
 11
6867.001706356467
 21
5213.459186232595
 31
0.0
  0
LINE
  5
9B9
  8
0
 62
   252
 10
5743.042465827104
 20
4913.459186152626
 30
0.0
 11
6867.001706377812
 21
4913.459186232594
 31
0.0
  0
LINE
  5
9BA
  8
0
 62
   252
 10
5743.042465795087
 20
5363.459186152631
 30
0.0
 11
6867.001706345794
 21
5363.459186232598
 31
0.0
  0
LINE
  5
9BC
  8
0
 62
   252
 10
5743.042465962201
 20
3013.459186152619
 30
0.0
 11
6867.001706512999
 21
3013.459186232586
 31
0.0
  0
LINE
  5
9BD
  8
0
 62
   252
 10
5743.042465759513
 20
5863.459186152636
 30
0.0
 11
6867.001706310219
 21
5863.459186232601
 31
0.0
  0
LINE
  5
9BE
  8
0
 62
     3
 10
5743.042465798644
 20
5313.459186152631
 30
0.0
 11
7990.96094690026
 21
5313.459186312563
 31
0.0
  0
LINE
  5
9BF
  8
0
 62
   252
 10
5743.042465745242
 20
6063.459186152636
 30
0.0
 11
6867.001706295989
 21
6063.459186232602
 31
0.0
  0
LINE
  5
9C0
  8
0
 62
   252
 10
5743.042465752316
 20
5963.459186152636
 30
0.0
 11
6867.001706303104
 21
5963.459186232602
 31
0.0
  0
LINE
  5
9C1
  8
0
 62
   252
 10
5743.042465748815
 20
6013.459186152636
 30
0.0
 11
6867.001706299547
 21
6013.459186232602
 31
0.0
  0
LINE
  5
9C2
  8
0
 62
   252
 10
5743.042465755956
 20
5913.459186152636
 30
0.0
 11
6867.001706306662
 21
5913.459186232602
 31
0.0
  0
LINE
  5
9C3
  8
0
 62
     3
 10
5743.042465741672
 20
6113.459186152636
 30
0.0
 11
7990.96094684334
 21
6113.459186312569
 31
0.0
  0
LINE
  5
9C4
  8
0
 62
   252
 10
5743.04246576307
 20
5813.459186152634
 30
0.0
 11
6867.001706313777
 21
5813.459186232601
 31
0.0
  0
LINE
  5
9C5
  8
0
 62
   252
 10
5743.042465862485
 20
4413.459186152624
 30
0.0
 11
6867.001706413402
 21
4413.459186232591
 31
0.0
  0
LINE
  5
9C6
  8
0
 62
   252
 10
5743.04246586607
 20
4363.459186152624
 30
0.0
 11
6867.001706416945
 21
4363.459186232591
 31
0.0
  0
LINE
  5
9C7
  8
0
 62
   252
 10
5743.04246591248
 20
3713.459186152621
 30
0.0
 11
6867.001706463193
 21
3713.459186232589
 31
0.0
  0
LINE
  5
9C8
  8
0
 62
     3
 10
5743.042465905283
 20
3813.459186152622
 30
0.0
 11
7990.960947006985
 21
3813.459186312557
 31
0.0
  0
LINE
  5
9C9
  8
0
 62
   252
 10
5743.042465844752
 20
4663.459186152626
 30
0.0
 11
7990.960946946509
 21
4663.45918631256
 31
0.0
  0
LINE
  5
9CA
  8
0
 62
     3
 10
5743.042465901781
 20
3863.459186152622
 30
0.0
 11
7990.960947003429
 21
3863.459186312557
 31
0.0
  0
LINE
  5
9CB
  8
0
 62
   252
 10
5743.042465837611
 20
4763.459186152626
 30
0.0
 11
6867.001706388485
 21
4763.459186232592
 31
0.0
  0
LINE
  5
9CC
  8
0
 62
   252
 10
5743.042465859011
 20
4463.459186152624
 30
0.0
 11
7990.960946960738
 21
4463.459186312557
 31
0.0
  0
LINE
  5
9CD
  8
0
 62
   252
 10
5743.042465851895
 20
4563.459186152626
 30
0.0
 11
6867.001706402715
 21
4563.459186232592
 31
0.0
  0
LINE
  5
9CE
  8
0
 62
   252
 10
5743.042465916037
 20
3663.459186152621
 30
0.0
 11
6867.001706466751
 21
3663.459186232587
 31
0.0
  0
LINE
  5
9CF
  8
0
 62
   252
 10
5743.042465880355
 20
4163.459186152624
 30
0.0
 11
6867.001706431175
 21
4163.459186232591
 31
0.0
  0
LINE
  5
9D0
  8
0
 62
   252
 10
5743.042465883913
 20
4113.459186152624
 30
0.0
 11
6867.001706434733
 21
4113.459186232591
 31
0.0
  0
LINE
  5
9D1
  8
0
 62
   252
 10
5743.042465898209
 20
3913.459186152622
 30
0.0
 11
6867.001706448963
 21
3913.45918623259
 31
0.0
  0
LINE
  5
9D2
  8
0
 62
   252
 10
5743.042465848255
 20
4613.459186152626
 30
0.0
 11
6867.001706399157
 21
4613.459186232592
 31
0.0
  0
LINE
  5
9D3
  8
0
 62
   252
 10
5743.042465869641
 20
4313.459186152624
 30
0.0
 11
6867.001706420503
 21
4313.459186232591
 31
0.0
  0
LINE
  5
9D4
  8
0
 62
   252
 10
5743.042465908923
 20
3763.459186152622
 30
0.0
 11
6867.001706459635
 21
3763.45918623259
 31
0.0
  0
LINE
  5
9D5
  8
0
 62
   252
 10
5743.042465873212
 20
4263.459186152624
 30
0.0
 11
6867.00170642406
 21
4263.459186232591
 31
0.0
  0
LINE
  5
9D6
  8
0
 62
   252
 10
5743.042465919512
 20
3613.459186152621
 30
0.0
 11
6867.001706470322
 21
3613.459186232587
 31
0.0
  0
LINE
  5
9D7
  8
0
 62
   252
 10
5743.042465887469
 20
4063.459186152622
 30
0.0
 11
6867.00170643829
 21
4063.45918623259
 31
0.0
  0
LINE
  5
9D8
  8
0
 62
   252
 10
5743.042465841182
 20
4713.459186152626
 30
0.0
 11
6867.001706392042
 21
4713.459186232592
 31
0.0
  0
LINE
  5
9D9
  8
0
 62
   252
 10
5743.042465965841
 20
2963.459186152619
 30
0.0
 11
7990.960947067543
 21
2963.459186312552
 31
0.0
  0
LINE
  5
9DA
  8
0
 62
   252
 10
5743.042465823546
 20
4963.459186152628
 30
0.0
 11
6867.001706374255
 21
4963.459186232594
 31
0.0
  0
LINE
  5
9DB
  8
0
 62
   252
 10
5743.042465894638
 20
3963.459186152622
 30
0.0
 11
6867.001706445419
 21
3963.45918623259
 31
0.0
  0
LINE
  5
9DC
  8
0
 62
   252
 10
5743.042465958699
 20
3063.459186152619
 30
0.0
 11
6867.001706509441
 21
3063.459186232586
 31
0.0
  0
LINE
  5
9DD
  8
0
 62
   252
 10
5743.042465830662
 20
4863.459186152626
 30
0.0
 11
7990.960946932278
 21
4863.45918631256
 31
0.0
  0
LINE
  5
9DE
  8
0
 62
   252
 10
5743.042465812791
 20
5113.45918615263
 30
0.0
 11
6867.001706363581
 21
5113.459186232595
 31
0.0
  0
LINE
  5
9DF
  8
0
 62
   252
 10
5743.042465816431
 20
5063.45918615263
 30
0.0
 11
7990.960946918049
 21
5063.459186312562
 31
0.0
  0
LINE
  5
9E0
  8
0
 62
   252
 10
5743.042465876714
 20
4213.459186152624
 30
0.0
 11
6867.001706427618
 21
4213.459186232591
 31
0.0
  0
LINE
  5
9E2
  8
0
 62
   252
 10
5743.042465891053
 20
4013.459186152622
 30
0.0
 11
6867.001706441862
 21
4013.45918623259
 31
0.0
  0
LINE
  5
9E3
  8
0
 62
   252
 10
5743.042465855453
 20
4513.459186152626
 30
0.0
 11
6867.001706406272
 21
4513.459186232591
 31
0.0
  0
LINE
  5
9E4
  8
0
 62
   252
 10
5743.042465834218
 20
4813.459186152626
 30
0.0
 11
6867.001706384941
 21
4813.459186232592
 31
0.0
  0
LINE
  5
9E5
  8
0
 62
   252
 10
5743.042465791529
 20
5413.459186152632
 30
0.0
 11
6867.001706342237
 21
5413.459186232599
 31
0.0
  0
LINE
  5
9E6
  8
0
 62
   252
 10
5743.042465930241
 20
3463.459186152621
 30
0.0
 11
6867.001706480982
 21
3463.459186232587
 31
0.0
  0
LINE
  5
9E7
  8
0
 62
   252
 10
5743.042465784415
 20
5513.459186152634
 30
0.0
 11
6867.001706335122
 21
5513.459186232601
 31
0.0
  0
LINE
  5
9E9
  8
0
 62
   252
 10
5743.04246577013
 20
5713.459186152634
 30
0.0
 11
7990.960946871801
 21
5713.459186312567
 31
0.0
  0
LINE
  5
9EA
  8
0
 62
   252
 10
5743.042465787972
 20
5463.459186152633
 30
0.0
 11
6867.001706338679
 21
5463.4591862326
 31
0.0
  0
LINE
  5
9EB
  8
0
 62
   252
 10
5743.042465951556
 20
3163.459186152619
 30
0.0
 11
6867.001706502339
 21
3163.459186232586
 31
0.0
  0
LINE
  5
9ED
  8
0
 62
   252
 10
5743.042465777273
 20
5613.459186152634
 30
0.0
 11
6867.001706328007
 21
5613.459186232601
 31
0.0
  0
LINE
  5
9EE
  8
0
 62
   252
 10
5743.042465780775
 20
5563.459186152634
 30
0.0
 11
6867.001706331564
 21
5563.459186232601
 31
0.0
  0
LINE
  5
9EF
  8
0
 62
   252
 10
5743.042465773701
 20
5663.459186152634
 30
0.0
 11
6867.00170632445
 21
5663.459186232601
 31
0.0
  0
LINE
  5
9F0
  8
0
 62
   252
 10
5743.042465766545
 20
5763.459186152634
 30
0.0
 11
6867.001706317347
 21
5763.459186232601
 31
0.0
  0
LINE
  5
9F1
  8
0
 62
   252
 10
5743.042465955127
 20
3113.459186152619
 30
0.0
 11
6867.001706505884
 21
3113.459186232586
 31
0.0
  0
LINE
  5
9F2
  8
0
 62
   252
 10
5743.042465809289
 20
5163.45918615263
 30
0.0
 11
6867.001706360024
 21
5163.459186232595
 31
0.0
  0
LINE
  5
9F3
  8
0
 62
   252
 10
5743.042465947971
 20
3213.45918615262
 30
0.0
 11
6867.001706498782
 21
3213.459186232586
 31
0.0
  0
LINE
  5
9F4
  8
0
 62
   252
 10
5743.042465926668
 20
3513.459186152621
 30
0.0
 11
6867.001706477423
 21
3513.459186232587
 31
0.0
  0
LINE
  5
9F6
  8
0
 62
     3
 10
5743.042465802202
 20
5263.45918615263
 30
0.0
 11
7990.960946903817
 21
5263.459186312562
 31
0.0
  0
LINE
  5
9F7
  8
0
 62
     3
 10
5743.042465937382
 20
3363.459186152621
 30
0.0
 11
7990.960947039004
 21
3363.459186312555
 31
0.0
  0
LINE
  5
9F8
  8
0
 62
     3
 10
5743.042465933742
 20
3413.459186152621
 30
0.0
 11
7990.960947035447
 21
3413.459186312555
 31
0.0
  0
LINE
  5
9F9
  8
0
 62
   252
 10
5743.042465940939
 20
3313.459186152621
 30
0.0
 11
6867.001706491653
 21
3313.459186232586
 31
0.0
  0
LINE
  5
9FA
  8
0
 62
   252
 10
5743.04246581999
 20
5013.459186152629
 30
0.0
 11
6867.001706370697
 21
5013.459186232595
 31
0.0
  0
LINE
  5
9FB
  8
0
 62
   252
 10
5743.042465923098
 20
3563.459186152621
 30
0.0
 11
6867.001706473866
 21
3563.459186232587
 31
0.0
  0
LINE
  5
9FC
  8
0
 62
   252
 10
5743.042465944496
 20
3263.45918615262
 30
0.0
 11
6867.00170649521
 21
3263.459186232586
 31
0.0
  0
TEXT
  5
A0C
  8
0
 10
5745.709081041245
 20
6119.601100159936
 30
0.0
 40
30.0
  1
八.高層建築物、建築基地綜合設計：
  7
AEH
  0
TEXT
  5
A0D
  8
0
 10
5745.709081041245
 20
6019.601100159936
 30
0.0
 40
30.0
  1
1.專用出入口緩衝空間檢討
  7
AEH
  0
TEXT
  5
A0E
  8
0
 10
5745.709081041245
 20
5669.601100159936
 30
0.0
 40
30.0
  1
八-二.實施都市計畫地區建築基地綜合設計：
  7
AEH
  0
TEXT
  5
A0F
  8
0
 10
5745.709081041245
 20
5619.601100159936
 30
0.0
 40
30.0
  1
1.是否檢附預審核定函及核定報告書？
  7
AEH
  0
TEXT
  5
A10
  8
0
 10
5745.709081041245
 20
5569.601100159936
 30
0.0
 40
30.0
  1
2.增加樓地板面積合計之最大值是否與原核定相符？
  7
AEH
  0
TEXT
  5
A11
  8
0
 10
5745.709081041245
 20
5219.601100159936
 30
0.0
 40
30.0
  1
1.建築物之面前道路寬度檢討
  7
AEH
  0
TEXT
  5
A12
  8
0
 10
5745.709081041245
 20
5169.601100159936
 30
0.0
 40
30.0
  1
2.基地臨接道路之長度檢討
  7
AEH
  0
TEXT
  5
A13
  8
0
 10
5745.709081048361
 20
5019.601100159936
 30
0.0
 40
30.0
  1
3.電影院、歌廳、演藝場及集會堂：
  7
AEH
  0
TEXT
  5
A14
  8
0
 10
5745.709081048361
 20
4969.601100159936
 30
0.0
 40
30.0
  1
3-1.建築物基地之面前道路寬度與臨接長度檢討
  7
AEH
  0
TEXT
  5
A15
  8
0
 10
5745.709081055476
 20
4769.601100159935
 30
0.0
 40
30.0
  1
4-1.基地與道路之關係檢討
  7
AEH
  0
TEXT
  5
A16
  8
0
 10
5745.709081055476
 20
4719.601100159935
 30
0.0
 40
30.0
  1
4-2.商場之室內通路檢討
  7
AEH
  0
TEXT
  5
A17
  8
0
 10
5745.709081041245
 20
4569.601100159935
 30
0.0
 40
30.0
  1
5-1.校舍配置與方位是否符合規定
  7
AEH
  0
TEXT
  5
A18
  8
0
 10
5745.709081041245
 20
4519.601100159935
 30
0.0
 40
30.0
  1
5-2.教室淨高需大於3公尺
  7
AEH
  0
TEXT
  5
A19
  8
0
 10
5745.709081041245
 20
4419.601100159935
 30
0.0
 40
30.0
  1
6.車庫、車輛修理場所、洗車站房、汽車商場：
  7
AEH
  0
TEXT
  5
A1A
  8
0
 10
5745.709081041245
 20
4369.601100159935
 30
0.0
 40
30.0
  1
6-1.汽車出入口臨接道路、場所是否符合規定
  7
AEH
  0
TEXT
  5
A1B
  8
0
 10
5745.709081041245
 20
4319.601100159935
 30
0.0
 40
30.0
  1
6-2.汽車出入應設置緩衝空間，其寬度及深度是否符合
  7
AEH
  0
TEXT
  5
A1C
  8
0
 10
5745.709081041245
 20
4219.601100159935
 30
0.0
 40
30.0
  1
6-3.停車位數量達50輛以上者，自第50輛車位至汽車進
  7
AEH
  0
TEXT
  5
A1D
  8
0
 10
5745.709081041245
 20
4119.601100159935
 30
0.0
 40
30.0
  1
6-4.車道視角及2m退縮檢討(建物停車空間30輛以上)
  7
AEH
  0
TEXT
  5
A1E
  8
0
 10
5745.709081041245
 20
4069.601100159935
 30
0.0
 40
30.0
  1
6-5.汽車昇降機汽車位30輛須設6m*6m緩衝空間
  7
AEH
  0
TEXT
  5
A1F
  8
0
 10
5785.775181041245
 20
4269.601100159935
 30
0.0
 40
30.0
  1
規定？(建物停車空間30輛以上)
  7
AEH
  0
TEXT
  5
A20
  8
0
 10
5785.775181041245
 20
4169.601100159935
 30
0.0
 40
30.0
  1
出口及汽車進出口至道路間之通路，應為雙車道寬度
  7
AEH
  0
TEXT
  5
A21
  8
0
 10
5785.775181041245
 20
4019.601100159935
 30
0.0
 40
30.0
  1
(建物停車空間30輛以上)
  7
AEH
  0
TEXT
  5
A22
  8
0
 10
5745.709081041245
 20
3819.601100159935
 30
0.0
 40
30.0
  1
十.建築物設備、建築物安全維護設計：
  7
AEH
  0
TEXT
  5
A23
  8
0
 10
5745.709081041245
 20
3719.601100159935
 30
0.0
 40
30.0
  1
2.建築物安全維護設計檢討
  7
AEH
  0
TEXT
  5
A24
  8
0
 10
5745.709081041245
 20
3369.601100159935
 30
0.0
 40
30.0
  1
十一.建築物結構計算書：
  7
AEH
  0
TEXT
  5
A25
  8
0
 10
5745.709081041245
 20
3319.601100159935
 30
0.0
 40
30.0
  1
1.電腦程式是否經中央主管建築機關核定？
  7
AEH
  0
TEXT
  5
A26
  8
0
 10
5745.709081041245
 20
3269.601100159935
 30
0.0
 40
30.0
  1
2.建築基地座落位址是否正確？
  7
AEH
  0
TEXT
  5
A27
  8
0
 10
5745.709081041245
 20
3219.601100159935
 30
0.0
 40
30.0
  1
3.建築基地震區係數是否正確？
  7
AEH
  0
LINE
  5
A28
  8
0
 62
   252
 10
3445.123984678986
 20
5563.459185992702
 30
0.0
 11
4569.083225229841
 21
5563.459186072669
 31
0.0
  0
LINE
  5
A29
  8
0
 62
   252
 10
3445.123984682544
 20
5513.459185992702
 30
0.0
 11
4569.083225233398
 21
5513.459186072669
 31
0.0
  0
LINE
  5
A2A
  8
0
 62
   252
 10
3445.123984686101
 20
5463.459185992702
 30
0.0
 11
4569.083225236956
 21
5463.459186072669
 31
0.0
  0
LINE
  5
A2B
  8
0
 62
   252
 10
3445.123984689659
 20
5413.459185992702
 30
0.0
 11
4569.083225240513
 21
5413.459186072669
 31
0.0
  0
LINE
  5
A2C
  8
0
 62
   252
 10
3445.123984693216
 20
5363.459185992702
 30
0.0
 11
4569.08322524407
 21
5363.459186072669
 31
0.0
  0
LINE
  5
A2D
  8
0
 62
   252
 10
3445.123984703983
 20
5213.4591859927
 30
0.0
 11
5693.042465805653
 21
5213.459186152633
 31
0.0
  0
LINE
  5
A2E
  8
0
 62
   252
 10
3445.123984707541
 20
5163.4591859927
 30
0.0
 11
4569.083225258314
 21
5163.459186072667
 31
0.0
  0
LINE
  5
A2F
  8
0
 62
   252
 10
3445.123984711098
 20
5113.4591859927
 30
0.0
 11
4569.083225261871
 21
5113.459186072667
 31
0.0
  0
LINE
  5
A30
  8
0
 62
   252
 10
3445.123984714656
 20
5063.4591859927
 30
0.0
 11
4569.083225265428
 21
5063.459186072667
 31
0.0
  0
LINE
  5
A31
  8
0
 62
   252
 10
3445.123984718213
 20
5013.4591859927
 30
0.0
 11
4569.083225268985
 21
5013.459186072667
 31
0.0
  0
LINE
  5
A32
  8
0
 62
   252
 10
3445.123984721771
 20
4963.4591859927
 30
0.0
 11
4569.083225272542
 21
4963.459186072667
 31
0.0
  0
LINE
  5
A33
  8
0
 62
   252
 10
3445.123984725328
 20
4913.4591859927
 30
0.0
 11
4569.083225276099
 21
4913.459186072667
 31
0.0
  0
LINE
  5
A34
  8
0
 62
   252
 10
3445.123984746674
 20
4613.459185992697
 30
0.0
 11
4569.083225297449
 21
4613.459186072663
 31
0.0
  0
LINE
  5
A35
  8
0
 62
   252
 10
3445.123984732445
 20
4813.459185992699
 30
0.0
 11
4569.083225283217
 21
4813.459186072665
 31
0.0
  0
LINE
  5
A36
  8
0
 62
   252
 10
3445.123984736002
 20
4763.459185992699
 30
0.0
 11
4569.083225286774
 21
4763.459186072665
 31
0.0
  0
LINE
  5
A37
  8
0
 62
   252
 10
3445.12398473956
 20
4713.459185992699
 30
0.0
 11
4569.083225290331
 21
4713.459186072665
 31
0.0
  0
LINE
  5
A38
  8
0
 62
   252
 10
3445.123984743117
 20
4663.459185992699
 30
0.0
 11
5693.042465844785
 21
4663.459186152631
 31
0.0
  0
LINE
  5
A39
  8
0
 62
   252
 10
3445.123984750231
 20
4563.459185992697
 30
0.0
 11
4569.083225301006
 21
4563.459186072663
 31
0.0
  0
LINE
  5
A3A
  8
0
 62
   252
 10
3445.123984753789
 20
4513.459185992697
 30
0.0
 11
4569.083225304563
 21
4513.459186072663
 31
0.0
  0
LINE
  5
A3B
  8
0
 62
   252
 10
3445.123984764514
 20
4363.459185992694
 30
0.0
 11
4569.083225315234
 21
4363.45918607266
 31
0.0
  0
LINE
  5
A3C
  8
0
 62
   252
 10
3445.123984768072
 20
4313.459185992694
 30
0.0
 11
4569.083225318791
 21
4313.45918607266
 31
0.0
  0
LINE
  5
A3D
  8
0
 62
   252
 10
3445.123984771629
 20
4263.459185992694
 30
0.0
 11
4569.083225322351
 21
4263.45918607266
 31
0.0
  0
LINE
  5
A3E
  8
0
 62
   252
 10
3445.123984778743
 20
4163.459185992694
 30
0.0
 11
4569.083225329465
 21
4163.45918607266
 31
0.0
  0
LINE
  5
A3F
  8
0
 62
   252
 10
3445.123984782301
 20
4113.459185992694
 30
0.0
 11
4569.083225333022
 21
4113.45918607266
 31
0.0
  0
LINE
  5
A40
  8
0
 62
   252
 10
3445.123984785858
 20
4063.459185992694
 30
0.0
 11
4569.083225336579
 21
4063.45918607266
 31
0.0
  0
LINE
  5
A41
  8
0
 62
   252
 10
3445.123984792974
 20
3963.45918599269
 30
0.0
 11
4569.083225343696
 21
3963.459186072657
 31
0.0
  0
LINE
  5
A42
  8
0
 62
   252
 10
3445.123984796531
 20
3913.45918599269
 30
0.0
 11
4569.083225347253
 21
3913.459186072657
 31
0.0
  0
LINE
  5
A43
  8
0
 62
   252
 10
3445.123984800089
 20
3863.45918599269
 30
0.0
 11
4569.08322535081
 21
3863.459186072657
 31
0.0
  0
LINE
  5
A44
  8
0
 62
   252
 10
3445.123984807065
 20
3763.45918599269
 30
0.0
 11
4569.083225357925
 21
3763.459186072657
 31
0.0
  0
LINE
  5
A45
  8
0
 62
   252
 10
3445.123984810622
 20
3713.45918599269
 30
0.0
 11
4569.083225361482
 21
3713.459186072657
 31
0.0
  0
LINE
  5
A46
  8
0
 62
   252
 10
3445.123984814179
 20
3663.45918599269
 30
0.0
 11
4569.083225365039
 21
3663.459186072657
 31
0.0
  0
LINE
  5
A47
  8
0
 62
   252
 10
3445.123984824853
 20
3513.459185992689
 30
0.0
 11
4569.083225375713
 21
3513.459186072655
 31
0.0
  0
LINE
  5
A48
  8
0
 62
   252
 10
3445.123984839111
 20
3313.459185992688
 30
0.0
 11
4569.083225389944
 21
3313.459186072654
 31
0.0
  0
LINE
  5
A49
  8
0
 62
   252
 10
3445.123984821435
 20
3563.459185992689
 30
0.0
 11
4569.083225372156
 21
3563.459186072655
 31
0.0
  0
LINE
  5
A4A
  8
0
 62
   252
 10
3445.12398482841
 20
3463.459185992689
 30
0.0
 11
4569.083225379271
 21
3463.459186072655
 31
0.0
  0
LINE
  5
A4B
  8
0
 62
   252
 10
3445.123984831968
 20
3413.459185992689
 30
0.0
 11
4569.083225382828
 21
3413.459186072655
 31
0.0
  0
LINE
  5
A4C
  8
0
 62
   252
 10
3445.123984835525
 20
3363.459185992689
 30
0.0
 11
4569.083225386385
 21
3363.459186072655
 31
0.0
  0
LINE
  5
A4D
  8
0
 62
   252
 10
3445.123984842669
 20
3263.459185992688
 30
0.0
 11
4569.083225393501
 21
3263.459186072654
 31
0.0
  0
LINE
  5
A4E
  8
0
 62
   252
 10
3445.123984846226
 20
3213.459185992688
 30
0.0
 11
4569.083225397058
 21
3213.459186072654
 31
0.0
  0
LINE
  5
A4F
  8
0
 62
   252
 10
3445.123984849783
 20
3163.459185992688
 30
0.0
 11
4569.083225400615
 21
3163.459186072654
 31
0.0
  0
LINE
  5
A50
  8
0
 62
   252
 10
3445.123984853341
 20
3113.459185992688
 30
0.0
 11
4569.083225404172
 21
3113.459186072654
 31
0.0
  0
LINE
  5
A51
  8
0
 62
   252
 10
3445.123984856898
 20
3063.459185992688
 30
0.0
 11
4569.08322540773
 21
3063.459186072654
 31
0.0
  0
LINE
  5
A52
  8
0
 62
   252
 10
3445.123984867595
 20
2913.459185992687
 30
0.0
 11
4569.083225418403
 21
2913.459186072654
 31
0.0
  0
LINE
  5
A53
  8
0
 62
   252
 10
3445.123984871153
 20
2863.459185992687
 30
0.0
 11
5693.042465972856
 21
2863.459186152621
 31
0.0
  0
LINE
  5
A54
  8
0
 62
   252
 10
3445.12398487471
 20
2813.459185992687
 30
0.0
 11
4569.083225425517
 21
2813.459186072654
 31
0.0
  0
LINE
  5
A55
  8
0
 62
   252
 10
3445.123984878268
 20
2763.459185992687
 30
0.0
 11
4569.083225429074
 21
2763.459186072654
 31
0.0
  0
LINE
  5
A56
  8
0
 62
   252
 10
3445.123984881825
 20
2713.459185992687
 30
0.0
 11
4569.083225432631
 21
2713.459186072654
 31
0.0
  0
LINE
  5
A57
  8
0
 62
   252
 10
3445.123984885383
 20
2663.459185992687
 30
0.0
 11
4569.083225436189
 21
2663.459186072654
 31
0.0
  0
LINE
  5
A58
  8
0
 62
   252
 10
3445.12398488894
 20
2613.459185992687
 30
0.0
 11
4569.083225439746
 21
2613.459186072654
 31
0.0
  0
LINE
  5
A59
  8
0
 62
   252
 10
3445.123984928155
 20
2063.459185992683
 30
0.0
 11
4569.083225478882
 21
2063.45918607265
 31
0.0
  0
LINE
  5
A5A
  8
0
 62
   252
 10
3445.123984924515
 20
2113.459185992683
 30
0.0
 11
4569.083225475324
 21
2113.45918607265
 31
0.0
  0
LINE
  5
A5B
  8
0
 62
   252
 10
3445.123984899613
 20
2463.459185992685
 30
0.0
 11
4569.083225450421
 21
2463.459186072652
 31
0.0
  0
LINE
  5
A5C
  8
0
 62
   252
 10
3445.123984903171
 20
2413.459185992685
 30
0.0
 11
4569.083225453978
 21
2413.459186072652
 31
0.0
  0
LINE
  5
A5D
  8
0
 62
   252
 10
3445.123984906728
 20
2363.459185992685
 30
0.0
 11
4569.083225457535
 21
2363.459186072652
 31
0.0
  0
LINE
  5
A5E
  8
0
 62
   252
 10
3445.123984910286
 20
2313.459185992685
 30
0.0
 11
4569.083225461092
 21
2313.459186072652
 31
0.0
  0
LINE
  5
A5F
  8
0
 62
   252
 10
3445.123984913843
 20
2263.459185992685
 30
0.0
 11
4569.083225464649
 21
2263.459186072652
 31
0.0
  0
LINE
  5
A60
  8
0
 62
   252
 10
3445.123984917401
 20
2213.459185992685
 30
0.0
 11
4569.083225468206
 21
2213.459186072652
 31
0.0
  0
LINE
  5
A61
  8
0
 62
   252
 10
3445.123984920958
 20
2163.459185992685
 30
0.0
 11
4569.083225471763
 21
2163.459186072652
 31
0.0
  0
LINE
  5
A62
  8
0
 62
   252
 10
3445.123984956614
 20
1663.459185992681
 30
0.0
 11
4569.083225507341
 21
1663.459186072648
 31
0.0
  0
LINE
  5
A63
  8
0
 62
   252
 10
3445.123984952974
 20
1713.459185992681
 30
0.0
 11
4569.083225503783
 21
1713.459186072648
 31
0.0
  0
LINE
  5
A64
  8
0
 62
   252
 10
3445.12398493163
 20
2013.459185992683
 30
0.0
 11
4569.083225482437
 21
2013.45918607265
 31
0.0
  0
LINE
  5
A65
  8
0
 62
   252
 10
3445.123984935187
 20
1963.459185992683
 30
0.0
 11
4569.083225485994
 21
1963.45918607265
 31
0.0
  0
LINE
  5
A66
  8
0
 62
   252
 10
3445.123984938745
 20
1913.459185992683
 30
0.0
 11
4569.083225489551
 21
1913.45918607265
 31
0.0
  0
LINE
  5
A67
  8
0
 62
   252
 10
3445.123984942302
 20
1863.459185992683
 30
0.0
 11
4569.083225493108
 21
1863.45918607265
 31
0.0
  0
LINE
  5
A68
  8
0
 62
   252
 10
3445.12398494586
 20
1813.459185992683
 30
0.0
 11
4569.083225496665
 21
1813.45918607265
 31
0.0
  0
LINE
  5
A69
  8
0
 62
   252
 10
3445.123984949417
 20
1763.459185992683
 30
0.0
 11
4569.083225500222
 21
1763.45918607265
 31
0.0
  0
LINE
  5
A6A
  8
0
 62
   252
 10
3445.123984985075
 20
1263.459185992679
 30
0.0
 11
4569.083225535803
 21
1263.459186072646
 31
0.0
  0
LINE
  5
A6B
  8
0
 62
   252
 10
3445.123984981436
 20
1313.459185992679
 30
0.0
 11
4569.083225532245
 21
1313.459186072646
 31
0.0
  0
LINE
  5
A6C
  8
0
 62
   252
 10
3445.123984960092
 20
1613.459185992681
 30
0.0
 11
4569.083225510899
 21
1613.459186072648
 31
0.0
  0
LINE
  5
A6D
  8
0
 62
   252
 10
3445.123984963649
 20
1563.459185992681
 30
0.0
 11
4569.083225514456
 21
1563.459186072648
 31
0.0
  0
LINE
  5
A6E
  8
0
 62
   252
 10
3445.123984967207
 20
1513.459185992681
 30
0.0
 11
4569.083225518013
 21
1513.459186072648
 31
0.0
  0
LINE
  5
A6F
  8
0
 62
   252
 10
3445.123984970764
 20
1463.459185992681
 30
0.0
 11
4569.08322552157
 21
1463.459186072648
 31
0.0
  0
LINE
  5
A70
  8
0
 62
   252
 10
3445.123984974322
 20
1413.459185992681
 30
0.0
 11
4569.083225525127
 21
1413.459186072648
 31
0.0
  0
LINE
  5
A71
  8
0
 62
   252
 10
3445.123984977879
 20
1363.459185992681
 30
0.0
 11
4569.083225528684
 21
1363.459186072648
 31
0.0
  0
LINE
  5
A74
  8
0
 62
   252
 10
3445.123984988552
 20
1213.459185992679
 30
0.0
 11
4569.08322553936
 21
1213.459186072646
 31
0.0
  0
LINE
  5
A75
  8
0
 62
   252
 10
3445.12398499211
 20
1163.459185992679
 30
0.0
 11
4569.083225542917
 21
1163.459186072646
 31
0.0
  0
LINE
  5
A76
  8
0
 62
   252
 10
3445.123984995667
 20
1113.459185992679
 30
0.0
 11
4569.083225546474
 21
1113.459186072646
 31
0.0
  0
TEXT
  5
A7C
  8
0
 10
3447.7906
 20
6019.601100000001
 30
0.0
 40
30.0
  1
202.通則(10戶以下免設,<=0.5cm得垂直高差)
  7
AEH
  0
TEXT
  5
A7D
  8
0
 10
3447.7906
 20
5919.601100000001
 30
0.0
 40
30.0
  1
203.室外通路(1/15坡度,130cm寬)
  7
AEH
  0
TEXT
  5
A7E
  8
0
 10
3447.7906
 20
5819.601100000001
 30
0.0
 40
30.0
  1
204.室內通路(120cm寬,超過10m設150x150cm迴轉)
  7
AEH
  0
TEXT
  5
A7F
  8
0
 10
3447.7906
 20
5719.601100000001
 30
0.0
 40
30.0
  1
205.出入口(150x150前置平台,門框距90cm,推開門操作
  7
AEH
  0
TEXT
  5
A80
  8
0
 10
3447.7906
 20
5569.601100000001
 30
0.0
 40
30.0
  1
206.坡道(坡度1/12~1/10~1/5~1/2,
  7
AEH
  0
TEXT
  5
A81
  8
0
 10
3447.790600010672
 20
5269.601100000001
 30
0.0
 40
30.0
  1
207.扶手(直徑4cm,距鄰近壁面3~5cm,免延伸)
  7
AEH
  0
TEXT
  5
A82
  8
0
 10
3447.7906
 20
5119.601100000001
 30
0.0
 40
30.0
  1
302.樓梯設計(往上退一階)
  7
AEH
  0
TEXT
  5
A83
  8
0
 10
3447.7906
 20
5019.601100000001
 30
0.0
 40
30.0
  1
303.梯級(16x26cm或18x24cm,防護緣)
  7
AEH
  0
TEXT
  5
A84
  8
0
 10
3447.7906
 20
4919.601100000001
 30
0.0
 40
30.0
  1
304.扶手(75~85高,兩端外側扶手延伸)
  7
AEH
  0
TEXT
  5
A85
  8
0
 10
3447.7906
 20
4819.601100000001
 30
0.0
 40
30.0
  1
305.警示設施(上下30cm警示帶)
  7
AEH
  0
TEXT
  5
A86
  8
0
 10
3447.7906
 20
4719.601100000001
 30
0.0
 40
30.0
  1
306.戶外階梯(寬度超過6M設中間扶手)
  7
AEH
  0
TEXT
  5
A87
  8
0
 10
3447.7906
 20
4569.601100000001
 30
0.0
 40
30.0
  1
403.引導標誌(入口引導,主要入口樓層15cm標誌,
  7
AEH
  0
TEXT
  5
A88
  8
0
 10
3447.7906
 20
4419.601100000001
 30
0.0
 40
30.0
  1
404.出入平台(直徑150cm,
  7
AEH
  0
TEXT
  5
A89
  8
0
 10
3447.790600006942
 20
4219.601100000001
 30
0.0
 40
30.0
  1
405.昇降機機門(水平間隙3.2cm)
  7
AEH
  0
TEXT
  5
A8A
  8
0
 10
3447.7906
 20
4119.601100000001
 30
0.0
 40
30.0
  1
406.機廂(Dw90cm,深135cm,集合住宅80cm,
  7
AEH
  0
TEXT
  5
A8B
  8
0
 10
3447.7906
 20
3919.6011
 30
0.0
 40
30.0
  1
503.引導標誌(入口引導,15cm標誌)
  7
AEH
  0
TEXT
  5
A8C
  8
0
 10
3447.7906
 20
3819.6011
 30
0.0
 40
30.0
  1
504.廁所(直徑150cm迴轉,Dw80,鏡子90+90,
  7
AEH
  0
TEXT
  5
A8D
  8
0
 10
3447.790600003557
 20
3619.6011
 30
0.0
 40
30.0
  1
505.馬桶(座高40~45cm,
  7
AEH
  0
TEXT
  5
A8E
  8
0
 10
3447.7906
 20
3269.6011
 30
0.0
 40
30.0
  1
506.小便器(突出端高35~38cm,
  7
AEH
  0
TEXT
  5
A8F
  8
0
 10
3447.7906
 20
2969.6011
 30
0.0
 40
30.0
  1
507.洗面盆(盆上緣距地板80cm,龍頭至外緣最大45cm,
  7
AEH
  0
TEXT
  5
A90
  8
0
 10
3447.790600042659
 20
2769.601099999998
 30
0.0
 40
30.0
  1
802.通則(最靠近無障礙出入口或昇降機便捷處)
  7
AEH
  0
TEXT
  5
A91
  8
0
 10
3447.790600042659
 20
2669.601099999998
 30
0.0
 40
30.0
  1
803.引導標誌(入口引導,車位標誌40x40,地面90x90)
  7
AEH
  0
TEXT
  5
A92
  8
0
 10
3447.790600042659
 20
2569.601099999998
 30
0.0
 40
30.0
  1
804.停車格(350x600,藍框白斜直線)
  7
AEH
  0
TEXT
  5
A94
  8
0
 10
3548.0272
 20
5669.601100000001
 30
0.0
 40
30.0
  1
空間(Dw+45)x150cm,門把高75~85cm)
  7
AEH
  0
TEXT
  5
A95
  8
0
 10
3548.027200010648
 20
5370.118013927333
 30
0.0
 40
30.0
  1
淨寬90cm,防護緣5cm高,扶手75cm)
  7
AEH
  0
TEXT
  5
A96
  8
0
 10
3548.0272
 20
5470.118
 30
0.0
 40
30.0
  1
高差超過75cm設150cm長中間平台,
  7
AEH
  0
TEXT
  5
A97
  8
0
 10
3548.0272
 20
5520.118
 30
0.0
 40
30.0
  1
端點平台150x150cm,
  7
AEH
  0
TEXT
  5
A98
  8
0
 10
3548.0272
 20
5420.118
 30
0.0
 40
30.0
  1
轉彎平台時150x150cm,
  7
AEH
  0
TEXT
  5
A99
  8
0
 10
3548.0272
 20
4516.2599
 30
0.0
 40
30.0
  1
地面呼叫鈕前方30cm處)
  7
AEH
  0
TEXT
  5
A9A
  8
0
 10
3548.0272
 20
4366.2599
 30
0.0
 40
30.0
  1
入口觸覺135cm高,數字符號8cm高,
  7
AEH
  0
TEXT
  5
A9B
  8
0
 10
3548.0272
 20
4316.2599
 30
0.0
 40
30.0
  1
呼叫鈕85~90cm高,上方標誌5x5cm)
  7
AEH
  0
TEXT
  5
A9C
  8
0
 10
3548.0272
 20
4066.2599
 30
0.0
 40
30.0
  1
操作盤高85cm)
  7
AEH
  0
TEXT
  5
A9D
  8
0
 10
3548.0272
 20
3766.2599
 30
0.0
 40
30.0
  1
防夾手推拉門,
  7
AEH
  0
TEXT
  5
A9E
  8
0
 10
3548.027200003557
 20
3566.2599
 30
0.0
 40
30.0
  1
前方一側邊70cm淨空間,距側牆60以下,
  7
AEH
  0
TEXT
  5
A9F
  8
0
 10
3548.027200003557
 20
3516.2599
 30
0.0
 40
30.0
  1
背靠距前緣42~48cm,距上緣20cm,
  7
AEH
  0
TEXT
  5
AA0
  8
0
 10
3548.027200003557
 20
3466.2599
 30
0.0
 40
30.0
  1
沖水控制距前緣10cm,距上緣40cm,
  7
AEH
  0
TEXT
  5
AA1
  8
0
 10
3548.0272
 20
3416.2599
 30
0.0
 40
30.0
  1
扶手外皮距中心35cm,距上緣27cm,距前緣27cm,
  7
AEH
  0
TEXT
  5
AA2
  8
0
 10
3548.0272
 20
3716.2599
 30
0.0
 40
30.0
  1
求助鈴距前緣15cm,距上緣60cm)
  7
AEH
  0
TEXT
  5
AA3
  8
0
 10
3548.0272
 20
3366.2599
 30
0.0
 40
30.0
  1
可動扶手距前緣不超過15cm)
  7
AEH
  0
TEXT
  5
AA4
  8
0
 10
3548.027200003557
 20
3116.2599
 30
0.0
 40
30.0
  1
扶手心距中心30cm,距地板85/120cm,
  7
AEH
  0
TEXT
  5
AA5
  8
0
 10
3548.0272
 20
3166.2599
 30
0.0
 40
30.0
  1
兩側淨空間50cm以上,
  7
AEH
  0
TEXT
  5
AA6
  8
0
 10
3548.0272
 20
3216.2599
 30
0.0
 40
30.0
  1
頂部距地板100~120cm,
  7
AEH
  0
TEXT
  5
AA7
  8
0
 10
3548.0272
 20
3066.2599
 30
0.0
 40
30.0
  1
距壁面55/25cm,
  7
AEH
  0
TEXT
  5
AA8
  8
0
 10
3548.0272
 20
2916.2599
 30
0.0
 40
30.0
  1
扶手上緣距盆上緣1~3cm,距盆外緣2~4cm,
  7
AEH
  0
VIEWPORT
  5
26B
 67
     1
  8
0
 10
202.5
 20
128.5
 30
0.0
 40
486.0
 41
308.4
 68
     1
 69
     1
1001
ACAD
1000
MVIEW
1002
{
1070
    16
1010
0.0
1020
0.0
1030
0.0
1020
0.0
1030
0.0
1010
0.0
1020
0.0
1030
1.0
1020
0.0
1030
1.0
1040
0.0
1040
308.4
1040
202.5
1040
128.5
1040
50.0
1040
0.0
1040
0.0
1070
     0
1070
   100
1070
     0
1070
     3
1070
     0
1070
     0
1070
     0
1070
     0
1040
0.0
1040
0.0
1040
0.0
1040
0.5
1040
0.5
1040
0.0
1040
0.0
1070
     0
1002
{
1002
}
1002
}
  0
VIEWPORT
  5
26C
 67
     1
  8
0
 10
202.5
 20
128.5
 30
0.0
 40
324.0
 41
205.6
 68
     2
 69
     2
1001
ACAD
1000
MVIEW
1002
{
1070
    16
1010
0.0
1020
0.0
1030
0.0
1020
0.0
1030
0.0
1010
0.0
1020
0.0
1030
1.0
1020
0.0
1030
1.0
1040
0.0
1040
5722.2
1040
4280.0
1040
2805.0
1040
50.0
1040
0.0
1040
0.0
1070
     0
1070
   100
1070
     0
1070
     3
1070
     0
1070
     0
1070
     0
1070
     0
1040
0.0
1040
0.0
1040
0.0
1040
0.5
1040
0.5
1040
0.0
1040
0.0
1070
     0
1002
{
1002
}
1002
}
  0
ENDSEC
  0
EOF
